D mysterious

Chords

01234567891011121314151617181920212223
E
B
G
D
A
E
B
0 1 2 3 4 5 6 7 8 9 10 11 12 13 14 15 16 17 18 19 20 21 22 23
(/) Slide Up  (\) Slide Down  (h) Hammer On  (p) Pull Off  (b) Bend (r) Release (v) Vibrato

Stave 1:

E|--1--------1--------1--------1--------0--------0--------0--------0--------
B|-----2--------2--------2--------2--------2--------2--------2--------2-----
G|--------3--------3--------3--------3--------3--------3--------3--------3--
D|--------------------------------------------------------------------------
A|--------------------------------------------------------------------------
E|--------------------------------------------------------------------------

Stave 2:

E|--1--------1--------1--------1--------
B|-----2--------2--------2--------2-----
G|--------3--------3--------3--------3--
D|--------------------------------------
A|--------------------------------------
E|--------------------------------------

							http://www.guitartabcreator.com
Instruments
{"title":"D mysterious","strings":[[[1,".",".",1,".",".",1,".",".",1,".",".",0,".",".",0,".",".",0,".",".",0,".","."],[".",2,".",".",2,".",".",2,".",".",2,".",".",2,".",".",2,".",".",2,".",".",2,"."],[".",".",3,".",".",3,".",".",3,".",".",3,".",".",3,".",".",3,".",".",3,".",".",3],[".",".",".",".",".",".",".",".",".",".",".",".",".",".",".",".",".",".",".",".",".",".",".","."],[".",".",".",".",".",".",".",".",".",".",".",".",".",".",".",".",".",".",".",".",".",".",".","."],[".",".",".",".",".",".",".",".",".",".",".",".",".",".",".",".",".",".",".",".",".",".",".","."]],[[1,".",".",1,".",".",1,".",".",1,".","."],[".",2,".",".",2,".",".",2,".",".",2,"."],[".",".",3,".",".",3,".",".",3,".",".",3],[".",".",".",".",".",".",".",".",".",".",".","."],[".",".",".",".",".",".",".",".",".",".",".","."],[".",".",".",".",".",".",".",".",".",".",".","."]]],"numberofstrings":6,"notes":["E","B","G","D","A","E","B"],"capo":0,"stringnotes":["E4","B3","G3","D3","A2","E2"],"comments":["Stave 1:","Stave 2:"],"timing":[["W","W","W","W","W","W","W","W","W","W","W","W","W","W","W","W","W","W","W","W","W","W","W","W"],["W","W","W","W","W","W","W","W","W","W","W","W"]],"timingvisible":false,"tabcounter":12,"stave":1,"totalstaves":2,"instrument":"6guitar","selectedtuning":"6_standard","version":"13"}

Member for

3 years 3 months
Submitted by AGS96 on Sat, 2017-07-01 21:04