Sound will begin in 5 seconds

1

Chords
01234567891011121314151617181920212223
E
B
G
D
A
E
B
0 1 2 3 4 5 6 7 8 9 10 11 12 13 14 15 16 17 18 19 20 21 22 23
Song Science #1: How Pros Use 6 Chords to Write Hit Songs
(/) Slide Up  (\) Slide Down  (h) Hammer On  (p) Pull Off  (b) Bend (r) Release (v) Vibrato

Stave 1:

Eb|--------4--------1p0-------8-----9--
B |-----------5----------1-------------
G |------------------------------------
D |-----5--------2--------/7-----9-----
A |------------------------------------
D |------------------------------------

Stave 2:

Eb|------------------------------------------------------
B |------------------------------------------------------
G |------------------------------------------------------
D |--------2--------------2--------5---------------------
A |-----------------3-----------------------7/8-----7p5--
D |--3--3-----3--3-----3-----7--7-----7--7-------5-------

Stave 3:

Eb|--------------------------------------------------
B |-----------------------------------------------0--
G |--------------------------------------------------
D |--------2--------------2--------5--------5--------
A |-----------------3--------------------------------
D |--3--3-----3--3-----3-----7--7-----7--7-----7-----

Stave 4:

Eb|-----------------------------
B |-----------------------------
G |-----------------------------
D |--------5--------5--------5--
A |-----------------------------
D |--7--7-----7--7-----7--7-----

Stave 5:

Eb|--------------
B |-----------5--
G |--------------
D |--------5--5--
A |--5--7--3--3--
D |--3--5-----3--

Stave 6:

Eb|--------------
B |--5--5--3--8--
G |--------------
D |--3-----2-----
A |-----5--3--8--
D |--------------

http://www.guitartabcreator.com
Guitar Tab Creator is intended to store guitar tab created through the tool. It currently does not support in-line text editing. Any text you place in here will be lost. If you need to comment on your tab, please use the "Tab Notes" section located below.