Sound will begin in 5 seconds

Music

01234567891011121314151617181920212223
E
B
G
D
A
E
B
0 1 2 3 4 5 6 7 8 9 10 11 12 13 14 15 16 17 18 19 20 21 22 23
Song Science #1: How Pros Use 6 Chords to Write Hit Songs
(/) Slide Up  (\) Slide Down  (h) Hammer On  (p) Pull Off  (b) Bend (r) Release (v) Vibrato

Stave 1:

E|--0-----------------0--1-----3-----0-----------------0--1-----3--
B|--------3-----1--3--------3--------------3-----1--3--------3-----
G|-----0-----0--------------------------0-----0--------------------
D|-----------------------------------------------------------------
A|-----------------------------------------------------------------
E|-----------------------------------------------------------------

Stave 2:

E|--5--8--8--8--10--8--7--5--8--8--8--10--8-----5--8--8--8--10--8--5--0--3-----0--
B|--------------------------------------------------------------------------3-----
G|--------------------------------------------------------------------------------
D|--------------------------------------------------------------------------------
A|--------------------------------------------------------------------------------
E|--------------------------------------------------------------------------------

Stave 3:

E|--0-----------------0--1-----3-----0-----------------0--1-----3-----5--8--8--8--10--8--7--
B|--------3-----1--3--------3--------------3-----1--3--------3------------------------------
G|-----0-----0--------------------------0-----0---------------------------------------------
D|------------------------------------------------------------------------------------------
A|------------------------------------------------------------------------------------------
E|------------------------------------------------------------------------------------------

Stave 4:

E|--5--8--8--8--10-----8--7--5--8--8--8--10--8--5--0--3-----3--0--0--------0--1--3--0--------
B|-------------------------------------------------------------------3--3--------------3--1--
G|-------------------------------------------------------------------------------------------
D|-------------------------------------------------------------------------------------------
A|-------------------------------------------------------------------------------------------
E|-------------------------------------------------------------------------------------------

Stave 5:

E|--0--3--10--8--6--5--3--1--3--3--1-----3--6--11--10--8--6--6--5--5--
B|------------------------------------4-------------------------------
G|--------------------------------------------------------------------
D|--------------------------------------------------------------------
A|--------------------------------------------------------------------
E|--------------------------------------------------------------------

Stave 6:

E|--10--10--10--8--7--5--3--5--3------15-----7--7--7--7--7--7--5--7--8--7--
B|--------------------------------13---------------------------------------
G|-------------------------------------------------------------------------
D|-------------------------------------------------------------------------
A|-------------------------------------------------------------------------
E|-------------------------------------------------------------------------

Stave 7:

E|--0-----------------0--1-----3-----0-----------------0--1-----3-----5--8--8--8--10--8--7--
B|--------3-----1--3--------3--------------3-----1--3--------3------------------------------
G|-----0-----0--------------------------0-----0---------------------------------------------
D|------------------------------------------------------------------------------------------
A|------------------------------------------------------------------------------------------
E|------------------------------------------------------------------------------------------

Stave 8:

E|--5--8--8--8--10--8--7--5--8--8--8--10--8--7--5--8--8--8--10--8--5--0--3--
B|--------------------------------------------------------------------------
G|--------------------------------------------------------------------------
D|--------------------------------------------------------------------------
A|--------------------------------------------------------------------------
E|--------------------------------------------------------------------------

Stave 9:

E|--0--0--------0--1--3--0-----8--10--12--14--15--
B|--------3--3--------------3---------------------
G|------------------------------------------------
D|------------------------------------------------
A|------------------------------------------------
E|------------------------------------------------

http://www.guitartabcreator.com
Guitar Tab Creator is intended to store guitar tab created through the tool. It currently does not support in-line text editing. Any text you place in here will be lost. If you need to comment on your tab, please use the "Tab Notes" section located below.