Sound will begin in 5 seconds

Light

01234567891011121314151617181920212223
E
B
G
D
A
E
B
0 1 2 3 4 5 6 7 8 9 10 11 12 13 14 15 16 17 18 19 20 21 22 23
Song Science #1: How Pros Use 6 Chords to Write Hit Songs
(/) Slide Up  (\) Slide Down  (h) Hammer On  (p) Pull Off  (b) Bend (r) Release (v) Vibrato

Stave 1:

E|--3--1--0-----0--------------------3--1--0-----0--------------5--3--1--3--8--3-----0-----3--1--0--
B|-----------3-----3--0--1--------------------3-----3--0--1-----------------------1-----3-----------
G|-----------------------------0--------------------------------------------------------------------
D|--------------------------------------------------------------------------------------------------
A|--------------------------------------------------------------------------------------------------
E|--------------------------------------------------------------------------------------------------

Stave 2:

E|-----------3--1--0-----0-----------------3--1--0-----0--------------5--3--1--3--8--3-----0-----
B|--1--3--------------3-----3--0--1-----------------3-----3--0--1-----------------------1-----3--
G|-----------------------------------0-----------------------------------------------------------
D|-----------------------------------------------------------------------------------------------
A|-----------------------------------------------------------------------------------------------
E|-----------------------------------------------------------------------------------------------

Stave 3:

E|--3--1--0-----------5--3--1-----7--5--3--------8--7--5--0--3-----5--7--8--1--1--0--3-----------
B|-----------1--3--------------1--------------1--------------------------------------------1--3--
G|-----------------------------------------------------------------------------------------------
D|-----------------------------------------------------------------------------------------------
A|-----------------------------------------------------------------------------------------------
E|-----------------------------------------------------------------------------------------------

Stave 4:

E|--------3--1--1--0-----5--7--8--1--1--0--3-----------0--1--0-----------5--7--8--1--1--0--3--
B|--3--3-----------------------------------------1--3-----------3--1--------------------------
G|--------------------------------------------------------------------------------------------
D|--------------------------------------------------------------------------------------------
A|--------------------------------------------------------------------------------------------
E|--------------------------------------------------------------------------------------------

Stave 5:

E|--------0--1--0--------------3--1--0--------0-----------------3--1--0--------------0-----------
B|--1--3-----------3--3--1-----------------3-----3--3--1-----------------0--1-----3-----1--3-----
G|--------------------------------------------------------0-----------------------------------0--
D|-----------------------------------------------------------------------------------------------
A|-----------------------------------------------------------------------------------------------
E|-----------------------------------------------------------------------------------------------

Stave 6:

E|-----------0--3--------0--------------------0--3--15--13--12-----10--12--10--7--8--3--
B|-----1--3-----------3-----1--3--------1--3--------------------------------------------
G|--0-----------------------------0--0--------------------------------------------------
D|--------------------------------------------------------------------------------------
A|--------------------------------------------------------------------------------------
E|--------------------------------------------------------------------------------------

Stave 7:

E|--15--13--12--10--12--10--7--8--17--15--13--15--20--17--8--12--10--15--13--12--8--10--
B|--------------------------------------------------------------------------------------
G|--------------------------------------------------------------------------------------
D|--------------------------------------------------------------------------------------
A|--------------------------------------------------------------------------------------
E|--------------------------------------------------------------------------------------

Stave 8:

E|--8--10--12--13--15--17--19--20--
B|---------------------------------
G|---------------------------------
D|---------------------------------
A|---------------------------------
E|---------------------------------

Stave 9:

E|--6--4--3-----1--3--1--------------6--4--3-----1--3--1-----------8--6--4-----6--11--6-----3--1--
B|-----------------------3--4-----------------------------3--4---------------------------4--------
G|-----------------------------3------------------------------------------------------------------
D|------------------------------------------------------------------------------------------------
A|------------------------------------------------------------------------------------------------
E|------------------------------------------------------------------------------------------------

Stave 10:

E|--6-----3-----1-----6--4--3-----1--3--1--------------6--4--3-----1--3--1-----------8--6--4-----10--8--
B|-----1-----4-----------------------------3--4-----------------------------3--4--------------4---------
G|-----------------------------------------------3------------------------------------------------------
D|------------------------------------------------------------------------------------------------------
A|------------------------------------------------------------------------------------------------------
E|------------------------------------------------------------------------------------------------------

Stave 11:

E|--6-----11--10--8--3--6-----8--10--11--4--4--3--6--------3--------6--4--4--3-----8--10--11--4--4--3--
B|-----4------------------------------------------------4-----1--1-------------------------------------
G|-----------------------------------------------------------------------------------------------------
D|-----------------------------------------------------------------------------------------------------
A|-----------------------------------------------------------------------------------------------------
E|-----------------------------------------------------------------------------------------------------

Stave 12:

E|--6--------1--3--4--3--10--11-----8--11--15--13--11--11--3--6-----3--6--10--8--6--10--10--11--
B|--------4-------------------------------------------------------------------------------------
G|----------------------------------------------------------------------------------------------
D|----------------------------------------------------------------------------------------------
A|----------------------------------------------------------------------------------------------
E|----------------------------------------------------------------------------------------------

Stave 13:

E|--6--4--3--1--3--1--------------6--4--3-----------6--4--3--10--11--
B|--------------------3--4-----------------3--4----------------------
G|--------------------------3----------------------------------------
D|-------------------------------------------------------------------
A|-------------------------------------------------------------------
E|-------------------------------------------------------------------

http://www.guitartabcreator.com
Guitar Tab Creator is intended to store guitar tab created through the tool. It currently does not support in-line text editing. Any text you place in here will be lost. If you need to comment on your tab, please use the "Tab Notes" section located below.