Sound will begin in 5 seconds

The Ecstasy Of Gold (RHS Opener)

Chords
01234567891011121314151617181920212223
E
B
G
D
A
E
B
0 1 2 3 4 5 6 7 8 9 10 11 12 13 14 15 16 17 18 19 20 21 22 23
Song Science #1: How Pros Use 6 Chords to Write Hit Songs
(/) Slide Up  (\) Slide Down  (h) Hammer On  (p) Pull Off  (b) Bend (r) Release (v) Vibrato

Stave 1:

G|----2----5----7---------2---------5--------------2----5--------------2---------5--------------2----5----
D|--------------0----3---------5-----------------------------0----3---------5-----------------------------
A|----0----3--------------0---------3----7----7----0----3--------------0---------3----7----7----0----3----
E|-------------------1---------3--------------0-----------------------------3--------------0--------------

Stave 2:

G|--------------5----9-------2----9----7----14----2-------2----5-------5----7-------7----3----3----
D|----0----3---------------------------------------------------------------------------------------
A|--------------3----7----------------------------0-------0----3-------3----5-------5----1----1----
E|-------------------------------------------------------------------------------------------------

Stave 3:

G|----2-------2----5-------5----7-------7--------------2-------2----2----
D|-------------------------------------------3----3----------------------
A|----0-------0----3-------3----5-------5--------------0-------0----0----
E|-------------------------------------------1----1----------------------

http://www.guitartabcreator.com
Guitar Tab Creator is intended to store guitar tab created through the tool. It currently does not support in-line text editing. Any text you place in here will be lost. If you need to comment on your tab, please use the "Tab Notes" section located below.