Sound will begin in 5 seconds

Wraith

01234567891011121314151617181920212223
E
B
G
D
A
E
B
0 1 2 3 4 5 6 7 8 9 10 11 12 13 14 15 16 17 18 19 20 21 22 23
(/) Slide Up  (\) Slide Down  (h) Hammer On  (p) Pull Off  (b) Bend (r) Release (v) Vibrato

Stave 1:

B |----------------|--------------------|-------------------
Gb|----------------|--------------------|-------------------
D |----------------|--------------------|-------------------
A |----------------|--------------------|-------------------
E |----------------|--------------------|-------------------
A |--10--13/12--5--|--10--8\9\13--8--5--|--13--15--5--5--5--

Stave 2:

B |--------------|--
Gb|--------------|--
D |--------------|--
A |--------------|--
E |--------------|--
A |--10--13--14--|--

Stave 3:

B |--------------------|-------------------|-----------------
Gb|--------------------|-------------------|-----------------
D |--------------------|-------------------|-----------------
A |--------------------|-------------------|-----------------
E |--------------------|-------------------|-----------------
A |--10--8\9\13--8--5--|--13--15--5--5--5--|--5--5--5--5--5--

Stave 4:

B |--------------------------
Gb|--------------------------
D |--------------------------
A |--------------------------
E |--------------------------
A |--13--15--17--13--15--15--

							http://www.guitartabcreator.com
Note:
Guitar Tab Creator is intended to store guitar tab created through the tool. It currently does not support in-line text editing. Any text you place in here will be lost. If you need to comment on your tab, please use the "Tab Notes" section located below.