Sound will begin in 5 seconds

Vv

01234567891011121314151617181920212223
E
B
G
D
A
E
B
0 1 2 3 4 5 6 7 8 9 10 11 12 13 14 15 16 17 18 19 20 21 22 23
(/) Slide Up  (\) Slide Down  (h) Hammer On  (p) Pull Off  (b) Bend (r) Release (v) Vibrato

Stave 1:

B |--------------------|-------------------------------|--------------------|--
Gb|--------------------|-------------------------------|--------------------|--
D |--------------------|-------------------------------|--12--12--12--------|--
A |--------------------|-------------------------------|--------------------|--
E |--------------------|-------------------------------|--------------------|--
A |--5--6--5--6--3--1--|--5--5--6--3--3--4--1--1\8--9--|--------------1--3--|--

Stave 2:

B |----------------------------------------|------|--
Gb|----------------------------------------|------|--
D |----------------------------------------|------|--
A |--10--10--8--11--12--10--10--8--15--17--|--17--|--
E |----------------------------------------|------|--
A |----------------------------------------|------|--

Stave 3:

B |-------------------------------
Gb|-------------------------------
D |-------------------------------
A |-------------------------------
E |-------------------------------
A |--5--5--6--3--3--4--1--1\8--9--

http://www.guitartabcreator.com
Guitar Tab Creator is intended to store guitar tab created through the tool. It currently does not support in-line text editing. Any text you place in here will be lost. If you need to comment on your tab, please use the "Tab Notes" section located below.