Sound will begin in 5 seconds

Ljubav

01234567891011121314151617181920212223
E
B
G
D
A
E
B
0 1 2 3 4 5 6 7 8 9 10 11 12 13 14 15 16 17 18 19 20 21 22 23
(/) Slide Up  (\) Slide Down  (h) Hammer On  (p) Pull Off  (b) Bend (r) Release (v) Vibrato

Stave 1:

B |--------------------|--------------|--
Gb|--------------------|--------------|--
D |-----9--------7-----|--------------|--
A |--------0--------0--|--9--7--9-----|--
E |--9--------7--------|--------------|--
A |--------------------|-----------7--|--

Stave 2:

B |--------------------------------------------|--
Gb|--------------------------------------------|--
D |-----------------------11-------------------|--
A |--9--9--9--12--12--12------12--11\12\11--9--|--
E |--------------------------------------------|--
A |--------------------------------------------|--

Stave 3:

B |--------------|--------------------------------|--
Gb|--------------|--------------------------------|--
D |--------------|--------------------------------|--
A |--9--7--9-----|--9--9--9--12\14\12\14--14--12--|--
E |--------------|--------------------------------|--
A |-----------7--|--------------------------------|--

Stave 4:

B |--------------------------------------------|--
Gb|--------------------------------------------|--
D |-----------------------11-------------------|--
A |--9--9--9--12--12--12------12--11\12\11--9--|--
E |--------------------------------------------|--
A |--------------------------------------------|--

							http://www.guitartabcreator.com
Note:
Guitar Tab Creator is intended to store guitar tab created through the tool. It currently does not support in-line text editing. Any text you place in here will be lost. If you need to comment on your tab, please use the "Tab Notes" section located below.