L'importante è la salute (B)

Chords

01234567891011121314151617181920212223
E
B
G
D
A
E
B
0 1 2 3 4 5 6 7 8 9 10 11 12 13 14 15 16 17 18 19 20 21 22 23
(/) Slide Up  (\) Slide Down  (h) Hammer On  (p) Pull Off  (b) Bend (r) Release (v) Vibrato

Stave 1:

B |--------------|------------------|--------------|--------------|------------------|------|--
Gb|--------------|------------------|--------------|--------------|------------------|------|--
D |--------------|------------------|--------------|--------------|------------------|------|--
A |--17--16--14--|--17--19--16--14--|--17--16------|--------------|------------------|------|--
E |--------------|------------------|--------------|--------------|------16----------|------|--
A |--------------|------------------|----------14--|--17--16--14--|--17------17--16--|--14--|--

Stave 2:

B |--------------|------------------|--------------|------------------|--------|----------------
Gb|--------------|------------------|--------------|------------------|--------|----------------
D |--------------|------------------|--------------|------------------|--------|----------------
A |--------------|------------------|--------------|------------------|--------|----------------
E |--------------|------16----------|--------------|------16----------|--------|----------------
A |--17--16--14--|--17------17--16--|--17--16--14--|--17------17--14--|--8--5--|--17--16--8--5--

							http://www.guitartabcreator.com
{"title":"l'imp b","strings":[[[".",".",".","|",".",".",".",".","|",".",".",14,"|",17,16,14,"|",17,".",17,16,"|",14,"|"],[".",".",".","|",".",".",".",".","|",".",".",".","|",".",".",".","|",".",16,".",".","|",".","|"],[17,16,14,"|",17,19,16,14,"|",17,16,".","|",".",".",".","|",".",".",".",".","|",".","|"],[".",".",".","|",".",".",".",".","|",".",".",".","|",".",".",".","|",".",".",".",".","|",".","|"],[".",".",".","|",".",".",".",".","|",".",".",".","|",".",".",".","|",".",".",".",".","|",".","|"],[".",".",".","|",".",".",".",".","|",".",".",".","|",".",".",".","|",".",".",".",".","|",".","|"]],[[17,16,14,"|",17,".",17,16,"|",17,16,14,"|",17,".",17,14,"|",8,5,"|",17,16,8,5],[".",".",".","|",".",16,".",".","|",".",".",".","|",".",16,".",".","|",".",".","|",".",".",".","."],[".",".",".","|",".",".",".",".","|",".",".",".","|",".",".",".",".","|",".",".","|",".",".",".","."],[".",".",".","|",".",".",".",".","|",".",".",".","|",".",".",".",".","|",".",".","|",".",".",".","."],[".",".",".","|",".",".",".",".","|",".",".",".","|",".",".",".",".","|",".",".","|",".",".",".","."],[".",".",".","|",".",".",".",".","|",".",".",".","|",".",".",".",".","|",".",".","|",".",".",".","."]]],"notes":["A","E","A","D","FsGb","B"],"capo":0,"stringnotes":["A0","E1","A1","D2","Gb2","B2"],"timing":[["W","W","W",null,"W","W","W","W",null,"W","W","W",null,"W","W","W",null,"W","W","W","W","W","W"],["W","W","W",null,"W","W","W","W",null,"W","W","W",null,"W","W","W","W",null,"W","W",null,"W","W","W","W"]],"timingvisible":false,"tabcounter":25,"stave":1,"totalstaves":2,"version":"1.0"}

Member for

7 years 1 month
Submitted by aebmacchia on Fri, 2015-01-09 14:21