Sound will begin in 5 seconds

Cucciolini

01234567891011121314151617181920212223
E
B
G
D
A
E
B
0 1 2 3 4 5 6 7 8 9 10 11 12 13 14 15 16 17 18 19 20 21 22 23
(/) Slide Up  (\) Slide Down  (h) Hammer On  (p) Pull Off  (b) Bend (r) Release (v) Vibrato

Stave 1:

B |----------------|--------|-------------------------|--
Gb|----------------|--------|-------------------------|--
D |----------------|--------|-------------------------|--
A |----------------|--------|-------------------------|--
E |----------------|--------|-------------------------|--
A |--5--8--9--8\9--|--5--8--|--13--15--10--12--8--10--|--

Stave 2:

B |----------------------------------|-------------|--
Gb|----------------------------------|-------------|--
D |----------------------------------|-------------|--
A |----------------------------------|-------------|--
E |----------12----------9--------7--|-------------|--
A |--13--13------10--10-----8--8-----|--8--10--13--|--

Stave 3:

B |----------------------------------|---------------------------------|--
Gb|----------------------------------|---------------------------------|--
D |----------------------------------|---------------------------------|--
A |----------------------------------|---------------------------------|--
E |----------12----------9--------7--|---------------------------------|--
A |--13--13------10--10-----8--8-----|--8--10--13--8--13--10--8--8--8--|--

Stave 4:

B |--------------------------|--
Gb|--------------------------|--
D |--------------------------|--
A |--------------------------|--
E |--------------------------|--
A |--5--5--5--5--5--5--5--8--|--

							http://www.guitartabcreator.com
Note:
Guitar Tab Creator is intended to store guitar tab created through the tool. It currently does not support in-line text editing. Any text you place in here will be lost. If you need to comment on your tab, please use the "Tab Notes" section located below.