River Flows in You

Chords

01234567891011121314151617181920212223
E
B
G
D
A
E
B
0 1 2 3 4 5 6 7 8 9 10 11 12 13 14 15 16 17 18 19 20 21 22 23
(/) Slide Up  (\) Slide Down  (h) Hammer On  (p) Pull Off  (b) Bend (r) Release (v) Vibrato

(W|WW) Whole  (H|HH) Half  (Q|QQ) Quarter  (E|EE) 8th (S|SS) 16th  (T|TT) 32nd (X|XX) 64th

Stave 1:
t:  EE  EE  EE  EE  EE  EE  EE  WW  SS  SS  EE  EE  EE  EE  EE  EE  EE  WW  SS  SS  EE  SS  EE  SS  SS  EE  SS  SS  EE  SS  SS  SS  EE  EE  EE  EE  QQ  
E|--17--16--17--16--17------17--------------17--16--17--16--17------17--------------17--16--17------16--17----------17----------------------------------
B|----------------------17------15------14----------------------17------15------14------------------------------17----------15------14--15--17--14--12--
G|----------------------------------14--------------------------------------14------------------14----------14----------14------14----------14------13--
D|------------------------------------------------------------------------------------------------------------------------------------------------------
A|------------------------------------------------------------------------------------------------------------------------------------------------------
E|------------------------------------------------------------------------------------------------------------------------------------------------------

Stave 2:
t:  E  E  Q  E  E  Q  W  E  E  Q  E  E  Q  W  E  E  Q  E  E  E  E  
E|-----------------------------------------------------------------
B|--------7--------------------7--------------------7--------------
G|-----6-----------9--9-----6-----------9--9-----6-----------9-----
D|--4-----------7--------4-----------7--------4-----------7--------
A|-----------5--------------------5--------------------5--------5--
E|-----------------------------------------------------------------

Stave 3:
t:  
E|--
B|--
G|--
D|--
A|--
E|--

Stave 4:
t:  E  E  Q  E  E  Q  E  E  Q  
E|-----------------------------
B|--------------------------7--
G|--------6--------9-----6-----
D|--------------9-----4--------
A|-----7-----7-----------------
E|--5--------------------------

Stave 5:
t:  
E|--
B|--
G|--
D|--
A|--
E|--

Stave 6:
t:  
E|--
B|--
G|--
D|--
A|--
E|--

Stave 7:
t:  
E|--
B|--
G|--
D|--
A|--
E|--

Stave 8:
t:  
E|--
B|--
G|--
D|--
A|--
E|--

Stave 9:
t:  
E|--
B|--
G|--
D|--
A|--
E|--

Stave 10:
t:  
E|--
B|--
G|--
D|--
A|--
E|--

Stave 11:
t:  
E|--
B|--
G|--
D|--
A|--
E|--

							http://www.guitartabcreator.com
genre
Instruments
{"strings":[[[17,16,17,16,17,".",17,".",".",".",17,16,17,16,17,".",17,".",".",".",17,16,17,".",16,17,".",".",17,".",".",".",".",".",".",".","."],[".",".",".",".",".",17,".",15,".",14,".",".",".",".",".",17,".",15,".",14,".",".",".",".",".",".",".",17,".",".",15,".",14,15,17,14,12],[".",".",".",".",".",".",".",".",14,".",".",".",".",".",".",".",".",".",14,".",".",".",".",14,".",".",14,".",".",14,".",14,".",".",14,".",13],[".",".",".",".",".",".",".",".",".",".",".",".",".",".",".",".",".",".",".",".",".",".",".",".",".",".",".",".",".",".",".",".",".",".",".",".","."],[".",".",".",".",".",".",".",".",".",".",".",".",".",".",".",".",".",".",".",".",".",".",".",".",".",".",".",".",".",".",".",".",".",".",".",".","."],[".",".",".",".",".",".",".",".",".",".",".",".",".",".",".",".",".",".",".",".",".",".",".",".",".",".",".",".",".",".",".",".",".",".",".",".","."]],[[".",".",".",".",".",".",".",".",".",".",".",".",".",".",".",".",".",".",".",".","."],[".",".",7,".",".",".",".",".",".",7,".",".",".",".",".",".",7,".",".",".","."],[".",6,".",".",".",9,9,".",6,".",".",".",9,9,".",6,".",".",".",9,"."],[4,".",".",".",7,".",".",4,".",".",".",7,".",".",4,".",".",".",7,".","."],[".",".",".",5,".",".",".",".",".",".",5,".",".",".",".",".",".",5,".",".",5],[".",".",".",".",".",".",".",".",".",".",".",".",".",".",".",".",".",".",".",".","."]],[[],[],[],[],[],[]],[[".",".",".",".",".",".",".",".","."],[".",".",".",".",".",".",".",".",7],[".",".",6,".",".",9,".",6,"."],[".",".",".",".",9,".",4,".","."],[".",7,".",7,".",".",".",".","."],[5,".",".",".",".",".",".",".","."]],[[],[],[],[],[],[]],[[],[],[],[],[],[]],[[],[],[],[],[],[]],[[],[],[],[],[],[]],[[],[],[],[],[],[]],[[],[],[],[],[],[]],[[],[],[],[],[],[]]],"numberofstrings":6,"notes":["E","B","G","D","A","E"],"capo":0,"stringnotes":["E3","B2","G2","D2","A1","E1"],"comments":["Stave 1:","Stave 2:","Stave 3:","Stave 4:","Stave 5:","Stave 6:","Stave 7:","Stave 8:","Stave 9:","Stave 10:","Stave 11:"],"timing":[["E","E","E","E","E","E","E","W","S","S","E","E","E","E","E","E","E","W","S","S","E","S","E","S","S","E","S","S","E","S","S","S","E","E","E","E","Q","S","S"],["E","E","Q","E","E","Q","W","E","E","Q","E","E","Q","W","E","E","Q","E","E","E","E"],[],["E","E","Q","E","E","Q","E","E","Q"],[],[],[],[],[],[],["S"]],"timingvisible":true,"tabcounter":0,"stave":10,"totalstaves":11,"instrument":"6guitar","selectedtuning":"6guitar","version":"13"}

Member for

1 week 3 days
Submitted by Adonalsium on Tue, 2020-06-30 16:58