Sound will begin in 5 seconds

What Did Zoey Say?

Chords
01234567891011121314151617181920212223
E
B
G
D
A
E
B
0 1 2 3 4 5 6 7 8 9 10 11 12 13 14 15 16 17 18 19 20 21 22 23
Song Science #1: How Pros Use 6 Chords to Write Hit Songs
(/) Slide Up  (\) Slide Down  (h) Hammer On  (p) Pull Off  (b) Bend (r) Release (v) Vibrato

Stave 1:

E|--0--0---0--
B|--0--0---0--
G|--6--11--6--
D|--7--0---0--
A|--0--12--7--
E|--0--0---0--

Stave 2:

E|--------------------------------------------------------------------
B|--------------------------------------------------------------------
G|--------------------------------------------------------------------
D|--------------------------------------------------------------------
A|--------------7-----7-----7-----11--11--11--11--11--11--11--11--11--
E|--9--9--9--5-----5-----5-----7--------------------------------------

Stave 3:

E|-----------------------------------------
B|-----------------------------------------
G|--------------------------------------9--
D|--------------------------------9h11-----
A|-----7-----7-----7-----7--9/11-----------
E|--5-----5-----5-----9--------------------

Stave 4:

E|------------------------------------------------------
B|------------------------------------------------------
G|------------------------------------------------------
D|------------------------------------------------------
A|--7--7--7--7--7--7--7--7--7--7--7--7--7---7---7---7---
E|--5--5--5--5--5--5--5--5--9--9--9--9--10--10--10--10--

Stave 5:

E|---------------------------------------------------------
B|---------------------------------------------------------
G|---------------------------------------------------------
D|---------------------------------------------------------
A|--7--7--7--7--7--7--7--7--5--5--5--5--7--7---7---7---7---
E|--5--5--5--5--5--5--5--5--7--7--7--7--9--10--10--10--10--

Stave 6:

E|------------------------------------------------------------------------------
B|------------------------------------------------------------------------------
G|------------------------------------------------------------------------------
D|------------------------------------------------------------------------------
A|--14--14--14--14--14--14--14--14--14----------17--19--19----------17--19--19--
E|--0---0---0---0---0---0---0---0---0---15--17--------------15--17--------------

Stave 7:

E|--------------------------------------------------------------------------------------------
B|--------------------------------------------------------------------------------------------
G|----------------------------------------------14--12----------11--9---------14--12----------
D|------------------------------------------19----------14--12---------11--9----------14--12--
A|----------17--19--19----------17--19--19----------------------------------------------------
E|--15--17--------------15--17----------------------------------------------------------------

Stave 8:

E|-----------------------------------------------------------------
B|-----------------------------------------------------------------
G|--11--9---------14--12----------11--9---------14--12-------------
D|---------11--9----------14--12---------11--9----------14--12--9--
A|-----------------------------------------------------------------
E|-----------------------------------------------------------------

http://www.guitartabcreator.com
Guitar Tab Creator is intended to store guitar tab created through the tool. It currently does not support in-line text editing. Any text you place in here will be lost. If you need to comment on your tab, please use the "Tab Notes" section located below.