Sound will begin in 5 seconds

Cirice - Ghost

Chords
01234567891011121314151617181920212223
E
B
G
D
A
E
B
0 1 2 3 4 5 6 7 8 9 10 11 12 13 14 15 16 17 18 19 20 21 22 23
Song Science #1: How Pros Use 6 Chords to Write Hit Songs
(/) Slide Up  (\) Slide Down  (h) Hammer On  (p) Pull Off  (b) Bend (r) Release (v) Vibrato

Stave 1:

E|---------------------------------------------------
B|---------------------------------------------------
G|----------4-----3----------------------------------
D|-----1/2-----2-----4--4/5--4--3--------------------
A|---------------------------------3--2--1-----------
E|--0---------------------------------------2--1--0--

Stave 2:

E|----------
B|----------
G|----------
D|----------
A|--5--4--2--
E|--3--2--0--

Stave 3:

E|-------------------------------------------------------------------------
B|-------------------------------------------------------------------------
G|-------------------------------------------------------------------------
D|------------------------------10--10--------10--10-----------------------
A|--3--2--------2/7--------------8---8---------8---8---------3--2--1--------
E|--1--0--0--0-------6--0--0--0----------0--0----------0--0-----------0--0--

Stave 4:

E|------------------------------------------------
B|------------------------------------------------
G|------------------------------------------------
D|------------------------------------------------
A|--3--7--7h8p7-----6h7p6--------3--------3--------
E|--1--5---------8---------0--0--1--0--0--1--0--0--

Stave 5:

E|-------------------------------------------------------------------------------------------------------
B|-------------------------------------------------------------------------------------------------------
G|-----------------------------------------------------------------------12--12--11------10--------------
D|--------10--9-----10--7-----10--9-----5-----------5/7--------10--9-----12--12--12--12--12--------------
A|--0--7---------0---------0---------0-----5-----5-------0--7---------0----------------------------------
E|--------------------------------------------3----------------------------------------------1--1--1--0--

http://www.guitartabcreator.com
Guitar Tab Creator is intended to store guitar tab created through the tool. It currently does not support in-line text editing. Any text you place in here will be lost. If you need to comment on your tab, please use the "Tab Notes" section located below.