Sound will begin in 5 seconds

Wasting Away

Chords
01234567891011121314151617181920212223
E
B
G
D
A
E
B
0 1 2 3 4 5 6 7 8 9 10 11 12 13 14 15 16 17 18 19 20 21 22 23
Song Science #1: How Pros Use 6 Chords to Write Hit Songs
(/) Slide Up  (\) Slide Down  (h) Hammer On  (p) Pull Off  (b) Bend (r) Release (v) Vibrato

Stave 1:

E|--------4--4--7--7--2--6--6--------------4--4--7--7--2--6--6--------
B|--5--5-----------------------7--4--5--5-----------------------7--4--
G|--------------------------------------------------------------------
D|--------------------------------------------------------------------
A|--------------------------------------------------------------------
E|--------------------------------------------------------------------

Stave 2:

E|--------0-----------0-----------1-----------2-----------0-----------0-----------0--
B|-----2-----2-----2-----2-----2-----2-----2-----2-----2-----2-----2-----2-----2-----
G|--2-----------2-----------1--------------------------------------------------------
D|--------------------------------------4-----------2-----------2-----------2--------
A|-----------------------------------------------------------------------------------
E|-----------------------------------------------------------------------------------

Stave 3:

E|----------12--------------12--------------------------11------
B|------14------14------14------14------14----------14------14--
G|--14--------------14--------------13------13--11--------------
D|--------------------------------------------------------------
A|--------------------------------------------------------------
E|--------------------------------------------------------------

Stave 4:

E|--------9-----------9------------9------------9-----
B|-----9-----9-----9-----9------9-----9------9-----9--
G|--9-----------9-----------11-----------11-----------
D|----------------------------------------------------
A|----------------------------------------------------
E|----------------------------------------------------

Stave 5:

E|--------------------------------
B|--9--9--7--7--------7-----7-----
G|--------------9--9-----9-----9--
D|--------------------------------
A|--------------------------------
E|--------------------------------

Stave 6:

E|-----2-----2--1-----1-----0-----0--7-----6-----
B|--2-----0--------2-----5-----4--------0-----0--
G|-----------------------------------------------
D|-----------------------------------------------
A|-----------------------------------------------
E|-----------------------------------------------

Stave 7:

E|--5--5--5--4--4--7--7--7--7--7--7--
B|--5--5--5--5--5--7--7--7--7--9--7--
G|--6--6--6--6--6--9--9--9--8--8--8--
D|--7--7--7--------------------------
A|-----------------------------------
E|-----------------------------------

http://www.guitartabcreator.com
Guitar Tab Creator is intended to store guitar tab created through the tool. It currently does not support in-line text editing. Any text you place in here will be lost. If you need to comment on your tab, please use the "Tab Notes" section located below.