Sound will begin in 5 seconds

Thick Bob

Chords
01234567891011121314151617181920212223
E
B
G
D
A
E
B
0 1 2 3 4 5 6 7 8 9 10 11 12 13 14 15 16 17 18 19 20 21 22 23
Song Science #1: How Pros Use 6 Chords to Write Hit Songs
(/) Slide Up  (\) Slide Down  (h) Hammer On  (p) Pull Off  (b) Bend (r) Release (v) Vibrato

Stave 1:

E|-----------------------------------------------------
B|-----------------------------------------------------
G|-----------------------------------------------------
D|-----------------------------------------------------
A|--------7-----------7-----------7--9--------7--------
E|--9--5-----4--9--5-----4--9--5--------9--5-----4--5--

Stave 2:

E|--9---12--4--7--
B|----------------
G|--11--14--6--9--
D|----------------
A|----------------
E|----------------

Stave 3:

E|--------------------------
B|--------------------------
G|--------------------------
D|--------------------------
A|--------------------------
E|--9--9--9--9--5--5--5--9--

Stave 4:

E|--------9-----9--11--11--9-----
B|-----9-----9----------------9--
G|--9----------------------------
D|-------------------------------
A|-------------------------------
E|-------------------------------

Stave 5:

E|-----------9-----11--11--9-----9--------------9-----11--11--9--12--9--
B|-----9--------9-------------9-----9-----9--------9--------------------
G|--9-----9----------------------------9-----9--------------------------
D|----------------------------------------------------------------------
A|----------------------------------------------------------------------
E|----------------------------------------------------------------------

Stave 6:

E|--------------
B|--------------
G|--------------
D|--------------
A|--------7-----
E|--9--5-----4--

Stave 7:

E|-----------------
B|-----------------
G|-----------------
D|-----------------
A|-----------4--7--
E|--2--4--5--------

http://www.guitartabcreator.com
Guitar Tab Creator is intended to store guitar tab created through the tool. It currently does not support in-line text editing. Any text you place in here will be lost. If you need to comment on your tab, please use the "Tab Notes" section located below.