Sound will begin in 5 seconds

Modern Hitz

Chords
01234567891011121314151617181920212223
E
B
G
D
A
E
B
0 1 2 3 4 5 6 7 8 9 10 11 12 13 14 15 16 17 18 19 20 21 22 23
Song Science #1: How Pros Use 6 Chords to Write Hit Songs
(/) Slide Up  (\) Slide Down  (h) Hammer On  (p) Pull Off  (b) Bend (r) Release (v) Vibrato

Stave 1:

E|--x---x---x--x--x--x--x--
B|--x---x---x--x--x--x--x--
G|--12--12--4--4--9--5--7--
D|--x---x---x--x--x--x--x--
A|--10--10--2--2--7--3--5--
E|--x---x---x--x--x--x--x--

Stave 2:

E|--------------------------------------
B|--------------------------------------
G|--------------------------------------
D|--------------------------------------
A|-----------3--3--3-----------5--5--5--
E|--3--3--3-----------3--3--3-----------

Stave 3:

E|--------------------------------------------------------------
B|----------------------------------------------12--12--12--12--
G|--9--9--9--9--9---9---9---9---11--11--11--11--12--12--11--11--
D|--9--9--9--9--10--10--10--10--12--12--12--12------------------
A|--------------------------------------------------------------
E|--------------------------------------------------------------

Stave 4:

E|--------------
B|--------------
G|--9--7--9--7--
D|--------------
A|--------------
E|--------------

Stave 5:

E|--------------------------------------------------------
B|--------------------------------------------------------
G|--------------------------------------------------------
D|--------------------------------------------------------
A|-----------------------------3--3--3-----------5--5--5--
E|--3--3--3--3--3--3--3--3--3-----------3--3--3-----------

http://www.guitartabcreator.com
Guitar Tab Creator is intended to store guitar tab created through the tool. It currently does not support in-line text editing. Any text you place in here will be lost. If you need to comment on your tab, please use the "Tab Notes" section located below.