Sound will begin in 5 seconds

Hanging Tree

Chords
01234567891011121314151617181920212223
E
B
G
D
A
E
B
0 1 2 3 4 5 6 7 8 9 10 11 12 13 14 15 16 17 18 19 20 21 22 23
Song Science #1: How Pros Use 6 Chords to Write Hit Songs
(/) Slide Up  (\) Slide Down  (h) Hammer On  (p) Pull Off  (b) Bend (r) Release (v) Vibrato

Stave 1:

E|--2--2--2--3--4--4--4--4--
B|--3--2--3--3--3--3--3--3--
G|--2--3--4--4--4--4--4--4--
D|--4--2--4--5--2--2--2--2--
A|--5--4--2--x--x--x--x--x--
E|--x--2--x--x--x--x--x--x--

Stave 2:

E|--x--x--x--x--x--x--x--x--x--x--x--x--x--x--x--x--
B|--x--x--x--x--x--x--x--x--x--x--x--x--x--x--x--x--
G|--x--x--7--7--x--x--7--7--x--x--7--7--7--7--6--6--
D|--5--5--x--x--5--7--x--x--5--5--x--x--x--x--x--x--
A|--x--x--5--5--x--x--5--5--x--x--5--5--x--x--x--x--
E|--3--3--x--x--3--5--x--x--3--3--x--x--5--5--5--5--

Stave 3:

E|--3--3--5--5--3--5--5--5--3--2--4--4--3--3--
B|--3--3--7--7--3--5--7--7--3--2--3--3--3--5--
G|--4--4--7--7--4--6--7--7--4--3--4--4--4--4--
D|--5--5--7--7--5--7--7--7--5--4--2--2--5--5--
A|--5--5--5--5--5--7--5--5--5--4--2-----------
E|--3--3--------3--5--------3--2--------------

Stave 4:

E|--x--
B|--x--
G|--5--
D|--x--
A|--3--
E|--x--

Stave 5:

E|--------------------0-----------0-----
B|-----------------3-----3-----3-----3--
G|--7--6--7--4--4-----------4-----------
D|--------------------------------------
A|--------------------------------------
E|--------------------------------------

Stave 6:

E|--10--5--10--12--5--10--5--------------------------------------------------
B|--12--7--12--14--7--12--7--------------------------------------------------
G|--12--7--12--14--7--12--7--7-----7-----7-----7-----6-----6-----6-----6-----
D|------------------------------7-----7-----7-----7-----7-----7-----7-----7--
A|---------------------------------------------------------------------------
E|---------------------------------------------------------------------------

http://www.guitartabcreator.com
Guitar Tab Creator is intended to store guitar tab created through the tool. It currently does not support in-line text editing. Any text you place in here will be lost. If you need to comment on your tab, please use the "Tab Notes" section located below.