Sound will begin in 5 seconds

Cruel As Winter

Chords
01234567891011121314151617181920212223
E
B
G
D
A
E
B
0 1 2 3 4 5 6 7 8 9 10 11 12 13 14 15 16 17 18 19 20 21 22 23
Song Science #1: How Pros Use 6 Chords to Write Hit Songs
(/) Slide Up  (\) Slide Down  (h) Hammer On  (p) Pull Off  (b) Bend (r) Release (v) Vibrato

Stave 1:

E|----------------------------------------------------------------
B|----------------------------------------------------------------
G|----------------------------------------------------------------
D|--11--11--11--10--9--9--9--10--11--11--11--10--9--9--9--10--11--
A|----------------------------------------------------------------
E|----------------------------------------------------------------

Stave 2:

E|----------------------------------------------------------
B|----------------------------------------------------------
G|----------------------------------------------------------
D|----------11--10--9--9--9--10--------11--10--9--9--9--10--
A|--12--12-----------------------9--9-----------------------
E|----------------------------------------------------------

Stave 3:

E|-------------------------------------------------------------
B|-------------------------------------------------------------
G|-------------------------------------------------------------
D|--11--10--9--10--11--10--9--10------11--10--9-----11--10--9--
A|--------------------------------12-------------9-------------
E|-------------------------------------------------------------

Stave 4:

E|--2--9--2--9--5--4-----2--9--12--9--5--4-----
B|--------------------5---------------------5--
G|--2--9--2--9-----------2--9--12--9-----------
D|---------------------------------------------
A|---------------------------------------------
E|---------------------------------------------

Stave 5:

E|--5--4-----x--
B|--------5--x--
G|-----------9--
D|-----------x--
A|-----------7--
E|-----------x--

Stave 6:

E|--------------------------
B|--------------------------
G|--------------------------
D|--------------------------
A|--------------------------
E|--9--9--9--9--5--5--2--2--

Stave 7:

E|--------------------------
B|--------------------------
G|--------------------------
D|--------------------------
A|-----------8-----------7--
E|--9--9--9-----5--5--5-----

http://www.guitartabcreator.com
Guitar Tab Creator is intended to store guitar tab created through the tool. It currently does not support in-line text editing. Any text you place in here will be lost. If you need to comment on your tab, please use the "Tab Notes" section located below.