Sound will begin in 5 seconds

Instrumental

Chords
01234567891011121314151617181920212223
E
B
G
D
A
E
B
0 1 2 3 4 5 6 7 8 9 10 11 12 13 14 15 16 17 18 19 20 21 22 23
Song Science #1: How Pros Use 6 Chords to Write Hit Songs
(/) Slide Up  (\) Slide Down  (h) Hammer On  (p) Pull Off  (b) Bend (r) Release (v) Vibrato

Stave 1:

E|--------------------------------------------------------------------------------------
B|-----------0--------------------0--------------------0--------------------0-----------
G|-----0--------0-----0-----0--------0-----0-----0--------0-----0-----0--------0-----0--
D|--0-----0--------0-----0-----0--------0-----0-----0--------0-----0-----0--------0-----
A|--------------------------------------------------------------------------------------
E|--------------------------------------------------------------------------------------

Stave 2:

E|-----------3--------------------1-------------------------1--------------------------
B|--------------0--------------------0-----------------1/3--------1--0--------0--------
G|-----0--------------0-----0--------------0-----0-------------------------0-----0-----
D|--0-----0--------0-----0-----0--------0-----0-----0----------0--------0-----------0--
A|-------------------------------------------------------------------------------------
E|-------------------------------------------------------------------------------------

Stave 3:

E|-----------3--------------------1-------------------------1--------------------------
B|--------------0--------------------0-----------------1/3--------1--0--------0--------
G|-----0--------------0-----0--------------0-----0-------------------------0-----0-----
D|--0-----0--------0-----0-----0--------0-----0-----0----------0--------0-----------0--
A|-------------------------------------------------------------------------------------
E|-------------------------------------------------------------------------------------

Stave 4:

E|------------10-----------------------10----------------------8--------------------7-----------
B|----------------------------------------------------------------------------------------------
G|-----10/12------12-----12-----10---------10-----10-----9--------9-----9-----7--------7-----7--
D|--0-----------------0------0------0----------0------0-----0--------0-----0-----0--------0-----
A|----------------------------------------------------------------------------------------------
E|----------------------------------------------------------------------------------------------

Stave 5:

E|-----------3--------------------3------------------------------------------------------
B|------------------------------------------------------0--------------------0-----------
G|-----5--------5-----5-----3-----------3\2p0-----0--------0-----0-----0--------0-----0--
D|--0-----0--------0-----0-----0-----0---------0-----0--------0-----0-----0--------0-----
A|---------------------------------------------------------------------------------------
E|---------------------------------------------------------------------------------------

Stave 6:

E|------------10-----------------------10----------------------8--------------------7-----------
B|----------------------------------------------------------------------------------------------
G|-----10/12------12-----12-----10---------10-----10-----9--------9-----9-----7--------7-----7--
D|--0-----------------0------0------0----------0------0-----0--------0-----0-----0--------0-----
A|----------------------------------------------------------------------------------------------
E|----------------------------------------------------------------------------------------------

Stave 7:

E|-----------3--------------------3------------------------------------------------------
B|------------------------------------------------------0--------------------0-----------
G|-----5--------5-----5-----3-----------3\2p0-----0--------0-----0-----0--------0-----0--
D|--0-----0--------0-----0-----0-----0---------0-----0--------0-----0-----0--------0-----
A|---------------------------------------------------------------------------------------
E|---------------------------------------------------------------------------------------

Stave 8:

E|------------------10--12-----------------3--5-----2--3--2--------
B|--3--3--8--8--12----------3--3--8--8--5--------3-----------3--0--
G|-----------------------------------------------------------------
D|-----------------------------------------------------------------
A|--2--------6--10----------2--------6--3--------2--------------0--
E|-----3--8--------------------3--8--------------------------------

Stave 9:

E|--
B|--
G|--
D|--
A|--
E|--

http://www.guitartabcreator.com
Guitar Tab Creator is intended to store guitar tab created through the tool. It currently does not support in-line text editing. Any text you place in here will be lost. If you need to comment on your tab, please use the "Tab Notes" section located below.