Sound will begin in 5 seconds

Strange

Chords
01234567891011121314151617181920212223
E
B
G
D
A
E
B
0 1 2 3 4 5 6 7 8 9 10 11 12 13 14 15 16 17 18 19 20 21 22 23
Song Science #1: How Pros Use 6 Chords to Write Hit Songs
(/) Slide Up  (\) Slide Down  (h) Hammer On  (p) Pull Off  (b) Bend (r) Release (v) Vibrato

Stave 1:

E|-----------------
B|-----------------
G|-----------------
D|--3--6--8--8--6--
A|--3--6--8--8--6--
E|-----------------

Stave 2:

E|--------------------
B|--------------------
G|--------------------
D|--3--3--3--3--8--6--
A|--3--3--3--3--8--6--
E|--------------------

Stave 3:

E|-----------------------------------------------8-----8--
B|------8----------------------------------------9-----9--
G|---------8--------10--7---------13--10------8--8--8--8--
D|--10--------8--8---------8--11----------11--------------
A|--------------------------------------------------------
E|--------------------------------------------------------

Stave 4:

E|---------------------------------
B|---------------------------------
G|---------------------------------
D|---------------------------------
A|--3--3--6--8--10--11--11--10--8--
E|---------------------------------

Stave 5:

E|--------------------------------------------------------
B|--------------------------------------------------------
G|-----------------------------------------3--3-----------
D|--3--6--3-----------------3--3--6--3--6--------6--3--3--
A|-----------6--3-----3--6--------------------------------
E|-----------------6--------------------------------------

Stave 6:

E|--13--13--13--11-------------------------------------------11--8-----11--8-----11--8-----11--8--
B|------------------13--11--11--9------11--9------11--9-------------9---------9---------9---------
G|---------------------------------10---------10---------10---------------------------------------
D|------------------------------------------------------------------------------------------------
A|------------------------------------------------------------------------------------------------
E|------------------------------------------------------------------------------------------------

Stave 7:

E|--------------------------------------------------------------------
B|--11--9-------------------------------------------------------------
G|---------10--10-----------------------------------------------------
D|--------------------5--6--6--6--6--5-----6--6--6--6--6--6--8--6-----
A|-----------------8--------------------8--------------------------8--
E|--------------------------------------------------------------------

Stave 8:

E|------------------------------------------------------------------------------------------------------------
B|------------------------------------------------------------------11--9-------------------------------------
G|--13--13--13--13--13--13--13--12--10--13--13--13--13--13--13--13---------10--13--13--12--12--10--10--8--10--
D|------------------------------------------------------------------------------------------------------------
A|------------------------------------------------------------------------------------------------------------
E|------------------------------------------------------------------------------------------------------------

http://www.guitartabcreator.com
Guitar Tab Creator is intended to store guitar tab created through the tool. It currently does not support in-line text editing. Any text you place in here will be lost. If you need to comment on your tab, please use the "Tab Notes" section located below.