Sound will begin in 5 seconds

Juan Hussein

Chords
01234567891011121314151617181920212223
E
B
G
D
A
E
B
0 1 2 3 4 5 6 7 8 9 10 11 12 13 14 15 16 17 18 19 20 21 22 23
Song Science #1: How Pros Use 6 Chords to Write Hit Songs
(/) Slide Up  (\) Slide Down  (h) Hammer On  (p) Pull Off  (b) Bend (r) Release (v) Vibrato

Capo Fret 2

Stave 1:

E|----------------------------------------------------------
B|-------------9--7--7--9--7--------------------------------
G|----------9-----------------9--8--9-----11--11--11--9--8--
D|--11--11-----------------------------9--------------------
A|----------------------------------------------------------
E|----------------------------------------------------------

Stave 2:

E|---------------------------------------------------------
B|-------------9--7--7--9--7-------------------------------
G|----------9-----------------9--8--9-----8--9--11--9------
D|--11--11-----------------------------9---------------11--
A|---------------------------------------------------------
E|---------------------------------------------------------

Stave 3:

E|------------------------------------------------------------------------------
B|------------------------------------------------------------------------------
G|--------------------------------------------------------------------11--9--8--
D|--11--11--11--11--11--11--11--11--11--11--11--11--9--9--9--9--9--9------------
A|------------------------------------------------------------------------------
E|------------------------------------------------------------------------------

Stave 4:

E|--------------------------------------------------------------------------
B|--------------------------------------------------------------------------
G|--6--6--6--6--8--8--8--8--9--9--9--9--11--11--11--11--13--13--13--13--16--
D|--------------------------------------------------------------------------
A|--------------------------------------------------------------------------
E|--------------------------------------------------------------------------

Stave 5:

E|--5--5--5--4--4--4--5--5--5--7--9--7--5--4--
B|--5--5--5--5--5--5--7--7--7--7--9--7--5--5--
G|-----------4--4--4--6--6--6-----------------
D|--------------------4--4--4-----------------
A|--4--4--4-----------4--4--4-----------------
E|--5--5--5-----------------------------------

Stave 6:

E|--9--9--9--9--11--11--11--11--12--12--12--12--14--14--14--14--17--17--17--17--
B|------------------------------------------------------------------------------
G|------------------------------------------------------------------------------
D|------------------------------------------------------------------------------
A|------------------------------------------------------------------------------
E|------------------------------------------------------------------------------

Stave 7:

E|---------------------------------12--14--15--14--12--12--14--15--14--12--14--15--14------
B|-------------9--7--9--7--10--12------------------------------------------------------15--
G|----------9------------------------------------------------------------------------------
D|--11--11---------------------------------------------------------------------------------
A|-----------------------------------------------------------------------------------------
E|-----------------------------------------------------------------------------------------

http://www.guitartabcreator.com
Guitar Tab Creator is intended to store guitar tab created through the tool. It currently does not support in-line text editing. Any text you place in here will be lost. If you need to comment on your tab, please use the "Tab Notes" section located below.