Brown Eyed Girl - Van Morrison Intros & Break

Chords

01234567891011121314151617181920212223
E
B
G
D
A
E
B
0 1 2 3 4 5 6 7 8 9 10 11 12 13 14 15 16 17 18 19 20 21 22 23
(/) Slide Up  (\) Slide Down  (h) Hammer On  (p) Pull Off  (b) Bend (r) Release (v) Vibrato

Stave 1:

E|--3--5--7--5--3--8--10--12--10--8--3--5--7--5--3--2--2--3--5--
B|--------------------------------------------------3-----------
G|--4--5--7--5--4--9--10--12--10--9--4--5--7--5--4--2-----------
D|--------------------------------------------------------------
A|--------------------------------------------------------------
E|--------------------------------------------------------------

Stave 2:

E|--7--8---10--8---7--12--13--15--13--12--7--8---10--8---7--2--2--3--5--
B|--8--10--12--10--8--13--15--17--15--13--8--10--12--10--8--3-----------
G|----------------------------------------------------------2-----------
D|----------------------------------------------------------------------
A|----------------------------------------------------------------------
E|----------------------------------------------------------------------

Stave 3:

E|-----------------------------------------
B|-----------------------------------------
G|-----------------------------------------
D|--5-----5--5-----5--5-----5--5-----------
A|--------------------------------7--5--2--
E|-----------------------------------------

Stave 4:

E|-----------------------------------------------------------------
B|-----------------------------------------------------------------
G|-----------------------------------------------------------------
D|-----------------------2--2--4--4--5--------------------2--4-----
A|--------------2--3--3-----------------2--2--3--5--5--5--------5--
E|--3-----3--3-----------------------------------------------------

							http://www.guitartabcreator.com
Instruments
{"strings":[[[3,5,7,5,3,8,10,12,10,8,3,5,7,5,3,2,2,3,5],[".",".",".",".",".",".",".",".",".",".",".",".",".",".",".",3,".",".","."],[4,5,7,5,4,9,10,12,10,9,4,5,7,5,4,2,".",".","."],[".",".",".",".",".",".",".",".",".",".",".",".",".",".",".",".",".",".","."],[".",".",".",".",".",".",".",".",".",".",".",".",".",".",".",".",".",".","."],[".",".",".",".",".",".",".",".",".",".",".",".",".",".",".",".",".",".","."]],[[7,8,10,8,7,12,13,15,13,12,7,8,10,8,7,2,2,3,5],[8,10,12,10,8,13,15,17,15,13,8,10,12,10,8,3,".",".","."],[".",".",".",".",".",".",".",".",".",".",".",".",".",".",".",2,".",".","."],[".",".",".",".",".",".",".",".",".",".",".",".",".",".",".",".",".",".","."],[".",".",".",".",".",".",".",".",".",".",".",".",".",".",".",".",".",".","."],[".",".",".",".",".",".",".",".",".",".",".",".",".",".",".",".",".",".","."]],[[".","_",".",".","_",".",".","_",".",".",".",".","."],[".","_",".",".","_",".",".","_",".",".",".",".","."],[".","_",".",".","_",".",".","_",".",".",".",".","."],[5,"_",5,5,"_",5,5,"_",5,5,".",".","."],[".","_",".",".","_",".",".","_",".",".",7,5,2],[".","_",".",".","_",".",".","_",".",".",".",".","."]],[[".","_",".",".",".",".",".",".",".",".",".",".",".",".",".",".",".",".",".",".","."],[".","_",".",".",".",".",".",".",".",".",".",".",".",".",".",".",".",".",".",".","."],[".","_",".",".",".",".",".",".",".",".",".",".",".",".",".",".",".",".",".",".","."],[".","_",".",".",".",".",".",2,2,4,4,5,".",".",".",".",".",".",2,4,"."],[".","_",".",".",2,3,3,".",".",".",".",".",2,2,3,5,5,5,".",".",5],[3,"_",3,3,".",".",".",".",".",".",".",".",".",".",".",".",".",".",".",".","."]]],"numberofstrings":6,"notes":["E","B","G","D","A","E","B"],"capo":0,"stringnotes":["E4","B3","G3","D3","A2","E2"],"comments":["Stave 1:","Stave 2:","Stave 3:","Stave 4:"],"timing":[["W","W","W","W","W","W","W","W","W","W","W","W","W","W","W","W","W","W","W"],["W","W","W","W","W","W","W","W","W","W","W","W","W","W","W","W","W","W","W"],["W","W","W","W",null,"W","W",null,"W","W","W","W","W"],["W",null,"W","W","W","W","W","W","W","W","W","W","W","W","W","W","W","W","W","W","W"]],"timingvisible":false,"tabcounter":21,"stave":3,"totalstaves":4,"instrument":"6guitar","selectedtuning":"6_standard","version":"13"}

Member for

1 month 3 weeks
Submitted by ADAM PLANA on Mon, 2020-08-10 12:24