Sound will begin in 5 seconds

Christmas Medley by Daniel

01234567891011121314151617181920212223
E
B
G
D
A
E
B
0 1 2 3 4 5 6 7 8 9 10 11 12 13 14 15 16 17 18 19 20 21 22 23
Song Science #1: How Pros Use 6 Chords to Write Hit Songs
(/) Slide Up  (\) Slide Down  (h) Hammer On  (p) Pull Off  (b) Bend (r) Release (v) Vibrato

Stave 1:

E|------------------------------------------------------------------------------------------------------
B|---------------------------8--6--5--6--5--6--5--3--1-----1--3--5--6--6--6--6--6--6--6--6--6--6--6--6--
G|--------5--9--10--9--7--5-----------------------------3-----------------------------------------------
D|--3--7------------------------------------------------------------------------------------------------
A|------------------------------------------------------------------------------------------------------
E|------------------------------------------------------------------------------------------------------

Stave 2:

E|-------------------------------------------------------------------------------------------------------
B|--8--8--8--8--8--8--8--8--8--8--8--8--10--10--10--10--10--10--11--10--8--10--8-------------------------
G|--------------------------------------------------------------------------------10--------5--9--10--9--
D|------------------------------------------------------------------------------------3--7---------------
A|-------------------------------------------------------------------------------------------------------
E|-------------------------------------------------------------------------------------------------------

Stave 3:

E|--------------------------------------------------------------------------------------------------------
B|--------8--6--5--6--5--6--5--3--1-----1--3--5--6--6--6--6--6--6--6--6--6--6--6--6--8--8--8--8--8--8--8--
G|--7--5-----------------------------3--------------------------------------------------------------------
D|--------------------------------------------------------------------------------------------------------
A|--------------------------------------------------------------------------------------------------------
E|--------------------------------------------------------------------------------------------------------

Stave 4:

E|------------------------------------------------------------------------------------------------------
B|--8--8--8--8--8--10--10--10--10--10--10--11--10--8--10--8---------------------------------------------
G|-----------------------------------------------------------10-----------------------------------------
D|------------------------------------------------------------------------------------------------------
A|------------------------------------------------------------------------------------------------------
E|---------------------------------------------------------------0--0--0--0--0--0--0--0--0--0--0--0--0--

Stave 5:

E|-------------------------------------------------------------------------------------------------------
B|-------------------------------------------------------------------------------------------------------
G|-----------------------------------------------------------------------------------11--11--11--14--14--
D|-------------------------------------------------------------------------------------------------------
A|-------------------------------------------------------------------------------------------------------
E|--0--0--0--0--0--0--0--0--0--0--0--0--0--0--0--0--0--0--0--0--0--0--0--0--0--0--0----------------------

Stave 6:

E|--------------------------------------------------------------------------------------------------------
B|--------------------------------------------------------------------------------------------------------
G|--12--11--11--9--11--14--11--9--7--11--11--11--14--14--12--11--11--9--11--14--11--9--7--14--16--14------
D|----------------------------------------------------------------------------------------------------17--
A|--------------------------------------------------------------------------------------------------------
E|--------------------------------------------------------------------------------------------------------

Stave 7:

E|------------------------------------------------------------------------------------------------------
B|------------------------------------------------------------------------------------------------------
G|----------------------------------------------------------------------------------14--16--14----------
D|--16--17--19--17--16--14--16--17--16--14--12--14----------12--14--16--17--16--14--------------17--16--
A|--------------------------------------------------12--12----------------------------------------------
E|------------------------------------------------------------------------------------------------------

Stave 8:

E|--------------------------------------------------------------------------------------------------------
B|--------------------------------------------------------------------------------------------------------
G|--17--19--17--16--14--16--17--16--14--12--14----------12--14--16--17--16--14--10--9--10------10--9--10--
D|----------------------------------------------12--12-------------------------------------12-------------
A|--------------------------------------------------------------------------------------------------------
E|--------------------------------------------------------------------------------------------------------

Stave 9:

E|-------------------------------------------------------------------------------------------------------
B|-------------------------------------------------------------------------------------------------------
G|------10--9--10------10--9--10------10--9--10------10--9--10------10--9--10------10--9--10------10--9--
D|--12-------------12-------------12-------------12-------------12-------------12-------------12---------
A|-------------------------------------------------------------------------------------------------------
E|-------------------------------------------------------------------------------------------------------

Stave 10:

E|------------------------------------------------------------------------------------------------------
B|------------------------------------------------------------------------------------------------------
G|--10------10--9--10------10--9--10------10--9--10-----10--9--10-----10--9--10------10--9--10------10--
D|------12-------------12-------------10-------------8-------------8-------------10-------------10------
A|------------------------------------------------------------------------------------------------------
E|------------------------------------------------------------------------------------------------------

Stave 11:

E|-----------------------------------------------------------------------------------------------------
B|-----------------------------------------------------------------------------------------------------
G|--9--10------10--9--10------10--9--10------10--9--10------10--9--10-----10--9--10-----10--9--10------
D|---------12-------------12-------------10-------------10-------------8-------------8-------------10--
A|-----------------------------------------------------------------------------------------------------
E|-----------------------------------------------------------------------------------------------------

Stave 12:

E|-----------------10--10--10--8------------------------------------------------------------------------
B|--------------------------------11--10--10--10--8------------------10---------------------------------
G|--10--9--10----------------------------------------10--12--12--12------12--10--9--7---------7--10--7--
D|-------------10----------------------------------------------------------------------7--10------------
A|------------------------------------------------------------------------------------------------------
E|------------------------------------------------------------------------------------------------------

Stave 13:

E|--------------------------------------------------------------------------------------------------------
B|---------------------------------7--10--7---------------------------------------------------------------
G|--10--7-------------------7--10------------10--7--9-----------------------------------------------------
D|---------10--7-----7--10--------------------------------------------------------------------------------
A|----------------8---------------------------------------------------------------------------------------
E|-----------------------------------------------------0--0--0--0--0--0--0--0--0--0--0--0--0--0--0--0--0--

Stave 14:

E|-----------------------------
B|-----------------------------
G|-----------------------------
D|-----------------------------
A|-----------------------------
E|--0--0--0--0--0--0--0--0--0--

http://www.guitartabcreator.com
Guitar Tab Creator is intended to store guitar tab created through the tool. It currently does not support in-line text editing. Any text you place in here will be lost. If you need to comment on your tab, please use the "Tab Notes" section located below.