Sound will begin in 5 seconds

Hex Song 10 - Barrett's tabs

01234567891011121314151617181920212223
E
B
G
D
A
E
B
0 1 2 3 4 5 6 7 8 9 10 11 12 13 14 15 16 17 18 19 20 21 22 23
Song Science #1: How Pros Use 6 Chords to Write Hit Songs
(/) Slide Up  (\) Slide Down  (h) Hammer On  (p) Pull Off  (b) Bend (r) Release (v) Vibrato

Stave 1:

A |------10-10h11-11-10h11p10-8--8-8h10p8-----------
E |---10----------------------------------10--10----
B |-8--------------------------------------------11-
Gb|-------------------------------------------------
Db|-------------------------------------------------

Stave 2:

A |------10-10h11--11-10h11p10-8-------------------------------
E |---10--------------------------10-10h11p10-8--8-8h10p8------
B |-8-----------------------------------------------------11-9-
Gb|------------------------------------------------------------
Db|------------------------------------------------------------

Stave 3:

A |------10-10h11-11-10h11p10-8--8-8h10p8-----------
E |---10----------------------------------10--10----
B |-8--------------------------------------------11-
Gb|-------------------------------------------------
Db|-------------------------------------------------

Stave 4:

A |------10-10h11-11-10h11p10-8-------------------------------
E |---10-------------------------10-10h11p10-8--8-8h10p8------
B |-8----------------------------------------------------11-9-
Gb|-----------------------------------------------------------
Db|-----------------------------------------------------------

Stave 5:

A |---------------------------8------------
E |-----------------------------11-10-8----
B |--8--8-8-9v-----8--8-8-9v------------11b
Gb|----------------------------------------
Db|----------------------------------------

Stave 6:

A |---------------------------------------
E |---------------------------------------
B |------8-8h9--9-8h9p8-6--6-6h8p6--------
Gb|----8---------------------------8--8---
Db|--6----------------------------------9-

Stave 7:

A |-----------------------------------------------
E |-----------------------------------------------
B |------8-8h9--9-8h9p8-6-------------------------
Gb|----8-------------------8-8h9p8-6--6-6h8p6-----
Db|--6----------------------------------------9-7-

Stave 8:

A |--------------------------------------
E |--------------------------------------
B |-----8-8h9--9-8h9p8-6--6-6h8p6--------
Gb|---8---------------------------8--8---
Db|-6----------------------------------9-

Stave 9:

A |---------------------------------------------
E |---------------------------------------------
B |-----8-8h9--9-8h9p8-6------------------------
Gb|---8------------------8-8h9p8-6--6-6h8p6-----
Db|-6---------------------------------------9-7-

Stave 10:

A |-----------------------------------|-----------------------------------
E |-----------------------------------|-----------------------------------
B |-------------------------6---------|-----------------------6-----------
Gb|---------------------------9-8-6---|-------------------------9-8-6-----
Db|-6--6-6-7v----6--6-6-7v----------9b|-6--6-6-7b---6--6-6-7v---------9b6-

Stave 11:

A |-|---------------------------------------|-------------------------------|-
E |-|---------11---10-----------------------|-------------------------------|-
B |-|-8-8-8-8----8----8-8-8-8-8-8-8-8-8-8-8-|-8-9-8-8-8-9-8-9-9-9-9-9-9-9-9-|-
Gb|-|---------------------------------------|-------------------------------|-
Db|-|---------------------------------------|-------------------------------|-

Stave 12:

A |--------------------------------------------------------------------------
E |---------11---10-------8h10p8---------------------------------------------
B |-8-8-8-8----8----8-9-8--------11-9--11-12-11-11h12p11-11--9-11-9-9h11p9-9-
Gb|--------------------------------------------------------------------------
Db|--------------------------------------------------------------------------

Stave 13:

A |-----------------------------------------|-------------------------------|-
E |-----------------------------------------|-------------------------------|-
B |-----------------------------------------|-------------------------------|-
Gb|---------9---8---------------------------|-------------------------------|-
Db|-6-6-6-6---6---6-6-6-6-6-6-6-6-6-6-6-6-6-|-6-7-6-6-6-7-6-7-7-7-7-7-7-7-7-|-

Stave 14:

A |---------------------------------------------------------------
E |---------------------------------------------------------------
B |---------------------------------------------------------------
Gb|---------9---8-------6h8p6-------------------------------------
Db|-6-6-6-6---6---6-7-6-------9-7--9-10-9-9h10p9-9--7-9-7-7h9p7-7-

Stave 15:

A |---------------------------------------|-----------------------------------------
E |-----8---10---11---10-----8---10---8---|---8---10---11---13-------10----11----10-
B |-8-8---8----8----8----8-8---8----8---8-|-8---8----8----8----10-10----10----10----
Gb|---------------------------------------|-----------------------------------------
Db|---------------------------------------|-----------------------------------------

Stave 16:

A |-----------------------------------|--------------------------------
E |-----------------------------------|--------------------------------
B |-----------------------------------|--------------------------------
Gb|-----6---8---9---8-----6---8---6---|---6---8---9---11-----8---9---8-
Db|-6-6---6---6---6---6-6---6---6---6-|-6---6---6---6----8-8---8---8---

http://www.guitartabcreator.com
Guitar Tab Creator is intended to store guitar tab created through the tool. It currently does not support in-line text editing. Any text you place in here will be lost. If you need to comment on your tab, please use the "Tab Notes" section located below.