gum

Chords

01234567891011121314151617181920212223
E
B
G
D
A
E
B
0 1 2 3 4 5 6 7 8 9 10 11 12 13 14 15 16 17 18 19 20 21 22 23
(/) Slide Up  (\) Slide Down  (h) Hammer On  (p) Pull Off  (b) Bend (r) Release (v) Vibrato

Stave 1:

E|--3--3--3--1--0-----0--|--0--0--0--------------|-----------------------0--0-----|--3--3--3--1--0-----0--|--0--0--0--------------|-----------------------0--
B|-----------------3-----|-----------3--1--0--1--|--------------1--3-----------3--|-----------------3-----|-----------3--1--0--1--|--------------1--3--------
G|-----------------------|-----------------------|--2--0--2--4--------2-----------|-----------------------|-----------------------|--2--0--2--4--------2-----
D|-----------------------|-----------------------|--------------------------------|-----------------------|-----------------------|--------------------------
A|-----------------------|-----------------------|--------------------------------|-----------------------|-----------------------|--------------------------
E|-----------------------|-----------------------|--------------------------------|-----------------------|-----------------------|--------------------------

Intro:

E|--------------0-----------------0--
B|-----1--0--1-----3--1--------1-----
G|--------------0-----------0--------
D|-----2-----------------2-----------
A|--3-----------------3--------------
E|-----------------------------------

Verse:

E|--------3--3--3-----1--0-----0--|--------0--0--0-----------------|--------------------------1--0--0--------|--
B|--------1-----------3-----3-----|--------------------3--1--0--1--|--------------------1--3--3-----------3--|--
G|--------------------------------|--------------------------------|--------2--0--2--4--------2-----------0--|--
D|-----2--------------------------|-----2--------------------------|--------------0--------------------------|--
A|--3-----------------------------|--0--------------------------0--|-----3-----------------------------2-----|--
E|-----------------3--------------|-----------------0--------------|--1-----------------------------3--------|--

Stave 4:

E|--------8--8--7--3--3--0--5--3--3--0--3--|--------8--8--7--3--3--0--5--3--3--0--0--|--
B|-----1--------------------5-----------0--|-----1--------------------5-----------0--|--
G|--------------7-----------------------0--|--------------7-----------------------0--|--
D|-----2--------------------------------2--|-----2--------------------------------2--|--
A|--0--------------------------------------|--0--------------------------------------|--
E|--------------------------0--------------|--------------------------0--------------|--

Stave 5:

E|-----------5--|-----------3--|--------------
B|--1--3--1-----|--1--3--1-----|--------------
G|--------------|--------------|--------------
D|-----------3--|--------------|--------------
A|--------------|-----2--------|--------------
E|-----1--------|-----------3--|--3--3--3--3--

Stave 6:

E|--0--0--0-----------1--0-----0-----|-----------------------------1-----0-----------------0--1--0-----------------------|--------------0-------------
B|-----------------1--------3--1--1--1-----------0--1--------0--3-----------------------3-----0-----3--0--3--1--1--0--1--|-----1--0--1--1--3--0h1--1--
G|-----------0--2-----------------0--|--------2-----2--2--0--------------------------2--------2-----0--------------------|--0-----------0--0--0----0--
D|-----2--------3--------------------|--------------------------------------------0--------------------------------------|--2-------------------------
A|--3--------------------------------|--------------------2--------------3--------------------------2-----0-----------0--|-------------------------3--
E|-----------------------------------|--------1--------1-----------------------------------------------------------------|----------------------------

Stave 7:

E|--0--0--0-----------1--0-----0-----|-----------------------1h3---------|-----------0--1--0-----------------------|--------------0----------------
B|-----------------1--------3--1--1--|-----0--1--------0--3-------5p4h5--|--------3-----0-----3--0--3--1--1--0--1--|-----1--0--1--1--3--0h1--------
G|-----------0--2-----------------0--|--2-----2--2--0--------------------|-----2--------2-----0--------------------|--0-----------0--0--0----------
D|-----2--------3--------------------|-----------------------------------|--0--------------------------------------|--2----------------------------
A|--3--------------------------------|--------------2--------------------|--------------------2-----0-----------0--|-------------------------------
E|-----------------------------------|--1--------1-----------------------|-----------------------------------------|-------------------------------

							http://www.guitartabcreator.com
Instruments
{"strings":[[[3,3,3,1,0,".",0,"|",0,0,0,".",".",".",".","|",".",".",".",".",".",".",".",0,0,".","|",3,3,3,1,0,".",0,"|",0,0,0,".",".",".",".","|",".",".",".",".",".",".",".",0],[".",".",".",".",".",3,".","|",".",".",".",3,1,0,1,"|",".",".",".",".",1,3,".",".",".",3,"|",".",".",".",".",".",3,".","|",".",".",".",3,1,0,1,"|",".",".",".",".",1,3,".","."],[".",".",".",".",".",".",".","|",".",".",".",".",".",".",".","|",2,0,2,4,".",".",2,".",".",".","|",".",".",".",".",".",".",".","|",".",".",".",".",".",".",".","|",2,0,2,4,".",".",2,"."],[".",".",".",".",".",".",".","|",".",".",".",".",".",".",".","|",".",".",".",".",".",".",".",".",".",".","|",".",".",".",".",".",".",".","|",".",".",".",".",".",".",".","|",".",".",".",".",".",".",".","."],[".",".",".",".",".",".",".","|",".",".",".",".",".",".",".","|",".",".",".",".",".",".",".",".",".",".","|",".",".",".",".",".",".",".","|",".",".",".",".",".",".",".","|",".",".",".",".",".",".",".","."],[".",".",".",".",".",".",".","|",".",".",".",".",".",".",".","|",".",".",".",".",".",".",".",".",".",".","|",".",".",".",".",".",".",".","|",".",".",".",".",".",".",".","|",".",".",".",".",".",".",".","."]],[[".",".",".",".",0,".",".",".",".",".",0],[".",1,0,1,".",3,1,".",".",1,"."],[".",".",".",".",0,".",".",".",0,".","."],[".",2,".",".",".",".",".",2,".",".","."],[3,".",".",".",".",".",3,".",".",".","."],[".",".",".",".",".",".",".",".",".",".","."]],[[".",".",3,3,3,".",1,0,".",0,"|",".",".",0,0,0,".",".",".",".",".","|",".",".",".",".",".",".",".",".",1,0,0,".",".","|"],[".",".",1,".",".",".",3,".",3,".","|",".",".",".",".",".",".",3,1,0,1,"|",".",".",".",".",".",".",1,3,3,".",".",".",3,"|"],[".",".",".",".",".",".",".",".",".",".","|",".",".",".",".",".",".",".",".",".",".","|",".",".",2,0,2,4,".",".",2,".",".",".",0,"|"],[".",2,".",".",".",".",".",".",".",".","|",".",2,".",".",".",".",".",".",".",".","|",".",".",".",".",0,".",".",".",".",".",".",".",".","|"],[3,".",".",".",".",".",".",".",".",".","|",0,".",".",".",".",".",".",".",".",0,"|",".",3,".",".",".",".",".",".",".",".",".",2,".","|"],[".",".",".",".",".",3,".",".",".",".","|",".",".",".",".",".",0,".",".",".",".","|",1,".",".",".",".",".",".",".",".",".",3,".",".","|"]],[[".",".",8,8,7,3,3,0,5,3,3,0,3,"|",".",".",8,8,7,3,3,0,5,3,3,0,0,"|"],[".",1,".",".",".",".",".",".",5,".",".",".",0,"|",".",1,".",".",".",".",".",".",5,".",".",".",0,"|"],[".",".",".",".",7,".",".",".",".",".",".",".",0,"|",".",".",".",".",7,".",".",".",".",".",".",".",0,"|"],[".",2,".",".",".",".",".",".",".",".",".",".",2,"|",".",2,".",".",".",".",".",".",".",".",".",".",2,"|"],[0,".",".",".",".",".",".",".",".",".",".",".",".","|",0,".",".",".",".",".",".",".",".",".",".",".",".","|"],[".",".",".",".",".",".",".",".",0,".",".",".",".","|",".",".",".",".",".",".",".",".",0,".",".",".",".","|"]],[[".",".",".",5,"|",".",".",".",3,"|",".",".",".","."],[1,3,1,".","|",1,3,1,".","|",".",".",".","."],[".",".",".",".","|",".",".",".",".","|",".",".",".","."],[".",".",".",3,"|",".",".",".",".","|",".",".",".","."],[".",".",".",".","|",".",2,".",".","|",".",".",".","."],[".",1,".",".","|",".",".",".",3,"|",3,3,3,3]],[[0,0,0,".",".",".",1,0,".",0,".","|",".",".",".",".",".",".",".",".",".",1,".",0,".",".",".",".",".",0,1,0,".",".",".",".",".",".",".","|",".",".",".",".",0,".",".",".",".","."],[".",".",".",".",".",1,".",".",3,1,1,1,".",".",".",0,1,".",".",0,3,".",".",".",".",".",".",".",3,".",0,".",3,0,3,1,1,0,1,"|",".",1,0,1,1,3,0,"h",1,1],[".",".",".",0,2,".",".",".",".",".",0,"|",".",".",2,".",2,2,0,".",".",".",".",".",".",".",".",2,".",".",2,".",0,".",".",".",".",".",".","|",0,".",".",".",0,0,0,".",".",0],[".",2,".",".",3,".",".",".",".",".",".","|",".",".",".",".",".",".",".",".",".",".",".",".",".",".",0,".",".",".",".",".",".",".",".",".",".",".",".","|",2,".",".",".",".",".",".",".",".","."],[3,".",".",".",".",".",".",".",".",".",".","|",".",".",".",".",".",".",2,".",".",".",".",3,".",".",".",".",".",".",".",".",2,".",0,".",".",".",0,"|",".",".",".",".",".",".",".",".",".",3],[".",".",".",".",".",".",".",".",".",".",".","|",".",".",1,".",".",1,".",".",".",".",".",".",".",".",".",".",".",".",".",".",".",".",".",".",".",".",".","|",".",".",".",".",".",".",".",".",".","."]],[[0,0,0,".",".",".",1,0,".",0,".","|",".",".",".",".",".",".",".",1,"h",3,".",".",".",".",".","|",".",".",".",0,1,0,".",".",".",".",".",".",".","|",".",".",".",".",0,".",".",".",".",".","."],[".",".",".",".",".",1,".",".",3,1,1,"|",".",0,1,".",".",0,3,".",".",".",5,"p",4,"h",5,"|",".",".",3,".",0,".",3,0,3,1,1,0,1,"|",".",1,0,1,1,3,0,"h",1,".","."],[".",".",".",0,2,".",".",".",".",".",0,"|",2,".",2,2,0,".",".",".",".",".",".",".",".",".",".","|",".",2,".",".",2,".",0,".",".",".",".",".",".","|",0,".",".",".",0,0,0,".",".",".","."],[".",2,".",".",3,".",".",".",".",".",".","|",".",".",".",".",".",".",".",".",".",".",".",".",".",".",".","|",0,".",".",".",".",".",".",".",".",".",".",".",".","|",2,".",".",".",".",".",".",".",".",".","."],[3,".",".",".",".",".",".",".",".",".",".","|",".",".",".",".",2,".",".",".",".",".",".",".",".",".",".","|",".",".",".",".",".",".",2,".",0,".",".",".",0,"|",".",".",".",".",".",".",".",".",".",".","."],[".",".",".",".",".",".",".",".",".",".",".","|",1,".",".",1,".",".",".",".",".",".",".",".",".",".",".","|",".",".",".",".",".",".",".",".",".",".",".",".",".","|",".",".",".",".",".",".",".",".",".",".","."]]],"numberofstrings":6,"notes":["E","B","G","D","A","E","B"],"capo":0,"stringnotes":["E4","B3","G3","D3","A2","E2"],"comments":["Stave 1:","Intro:","Verse:","Stave 4:","Stave 5:","Stave 6:","Stave 7:"],"timing":[["W","W","W","W","W","W","W",null,"W","W","W","W","W","W","W",null,"W","W","W","W","W","W","W","W","W","W",null,"W","W","W","W","W","W","W",null,"W","W","W","W","W","W","W",null,"W","W","W","W","W","W","W","W"],["W","W","W","W","W","W",null,null,null,null,null,"W"],["W","W","W","W","W","W","W","W","W","W","W","W","W","W","W","W","W","W","W","W","W",null,"W","W","W","W","W","W","W","W","W","W","W","W","W","W"],["W","W","W","W","W","W","W","W","W","W","W","W","W","W","W","W","W","W","W","W","W","W","W","W","W","W",null,"W","W"],["W","W","W","W",null,"W","W","W","W","W","W","W","W","W"],["W","W","W","W","W","W","W","W","W","W","W",null,"W","W","W","W","W","W","W","W","W","W",null,"W","W","W","W","W","W","W","W","W","W","W",null,"W","W","W","W","W","W","W","W","W","W","W","W","W","W","W","W"],["W","W","W","W","W","W","W","W","W","W","W",null,"W","W","W","W","W","W","W","W",null,"W","W",null,"W",null,"W",null,"W","W","W","W","W","W","W","W","W","W","W","W","W",null,"W","W","W","W","W","W","W",null,"W"]],"timingvisible":false,"tabcounter":53,"stave":6,"totalstaves":7,"instrument":"6guitar","selectedtuning":"6_standard","version":"13"}

Member for

1 month
Submitted by achqua on Fri, 2020-10-30 08:45