childhood

Chords

01234567891011121314151617181920212223
E
B
G
D
A
E
B
0 1 2 3 4 5 6 7 8 9 10 11 12 13 14 15 16 17 18 19 20 21 22 23
(/) Slide Up  (\) Slide Down  (h) Hammer On  (p) Pull Off  (b) Bend (r) Release (v) Vibrato

Capo Fret 6

Stave 1:

E |---------------------------------------------------------0-----------------0--
Db|---------------------------------------------------0-----------------0--------
A |--------0--------0----------0----------0--------5-----5-----------5-----5-----
E |-----4--------4----------4----------5--------7-----------------7--------------
A |------------------------------------------0-----------------0-----------------
D |--0--------0--------0h2--------2/4--------------------------------------------

Stave 2:

E |------------------------------------------------------------------------------
Db|--------0--------0-------0----------0-----------------------------------------
A |-----0--------0-----0h2--------2/4-----------4h5/7--7--5--4-------0--4--2--0--
E |--0--------0----------------0----------0---------------------4h5--------------
A |------------------------------------------------------------------------------
D |------------------------------------------------------------------------------

Stave 3:

E |--0--
Db|--0--
A |--0--
E |--5--
A |--0--
D |--0--

Stave 4:

E |--0--0--0--0--0--0--0--0--
Db|--0--0--0--0--0--0--0--0--
A |--0--0--0--0--0--0--0--0--
E |--5--5--4--4--5--5--9--9--
A |--0--0--2--2--4--4--7--7--
D |--0--0--2--2--4--4--7--7--

Stave 5:

E |--0--0--0--0--0--0--0--0--0--0--0--0--0--0--0--0--
Db|--0--0--0--0--0--0--0--0--0--0--0--0--0--0--0--0--
A |--0--0--0--0--0--0--0--0--7--7--7--7--7--7--7--7--
E |--5--5--4--4--5--5--5--5--9--9--9--9--9--9--9--9--
A |--0--0--2--2--4--4--4--4--0--0--0--0--0--0--0--0--
D |--0--0--2--2--4--4--4--4--------------------------

Stave 6:

E |-----7--0--------------7--0-----------------
Db|-----------7--0--------------7--0--0--0--0--
A |--7-----0-----------7-----0--------0--2--4--
E |--------------------------------------------
A |--------------------------------------------
D |--------------------------------------------

Stave 7:

E |-----7--0--------------7--0-----------------
Db|-----------7--0--------------7--0--0--0--0--
A |--7-----0-----------7-----0--------4--2--0--
E |--------------------------------------------
A |--------------------------------------------
D |--------------------------------------------

Stave 8:

E |--5p0----------5p0------------------------------------------------------------
Db|-------3p0----------3p0-------0--------------------3p0--1h3p1p0-------0-------
A |-------------------------0h2-----2p0---------0-------------------0h2-----2p0--
E |--------------------------------------0h2h4-----4-----------------------------
A |------------------------------------------------------------------------------
D |------------------------------------------------------------------------------

Stave 9:

E |--0--0--0--0--0--0--0--0--0--0--0--0--0--0--0--0--0--0--
Db|--0--0--0--0--0--0--0--0--0--0--0--0--0--0--0--0--0--0--
A |--2--0--0--2--4--4--4--4--2--0--0--2--4--4--7--7--7--7--
E |--------------------------------------------------------
A |--------------------------------------------------------
D |--------------------------------------------------------

Stave 10:

E |--9p0-----------9p0-----------------------------------------------------------0---------------
Db|-------8-------------8--------0--0-0-0--0------------------------------5h7p5-----0--0-0-0--0--
A |----------7-------------7--------5h7p5--4------------0-----2h4p2p0------------------5h7p5--4--
E |----------------------------------------------0h2h4-------------------------------------------
A |----------------------------------------------------------------------------------------------
D |----------------------------------------------------------------------------------------------

Stave 11:

E |-------------------------
Db|----0--0--0--0--0--0--0--
A |----0--0--0--0--0--0--0--
E |--2p0--0--2--4--5--7--9--
A |-------------------------
D |-------------------------

Stave 12:

E |--0--0--0--0--
Db|--0--0--0--8--
A |--0--0--0--7--
E |--5--4--5--9--
A |--0--2--4--0--
D |--0--2--4-----

							http://www.guitartabcreator.com
Instruments
{"strings":[[[".",".",".",".",".",".",".",".",".",".",".",".",".",".",".",".",".",".",".",".",".",0,".",".",".",".",".",0],[".",".",".",".",".",".",".",".",".",".",".",".",".",".",".",".",".",".",".",0,".",".",".",".",".",0,".","."],[".",".",0,".",".",0,".",".",".",".",0,".",".",".",".",0,".",".",5,".",5,".",".",".",5,".",5,"."],[".",4,".",".",4,".",".",".",".",4,".",".",".",".",5,".",".",7,".",".",".",".",".",7,".",".",".","."],[".",".",".",".",".",".",".",".",".",".",".",".",".",".",".",".",0,".",".",".",".",".",0,".",".",".",".","."],[0,".",".",0,".",".",0,"h",2,".",".",2,"/",4,".",".",".",".",".",".",".",".",".",".",".",".",".","."]],[[".",".",".",".",".",".",".",".",".",".",".",".",".",".",".",".","_",".",".",".",".",".",".",".",".",".",".",".",".",".",".","."],[".",".",0,".",".",0,".",".",".",0,".",".",".",".",0,".","_",".",".",".",".",".",".",".",".",".",".",".",".",".",".","."],[".",0,".",".",0,".",0,"h",2,".",".",2,"/",4,".",".","_",4,"h",5,"/",7,7,5,4,".",".",".",0,4,2,0],[0,".",".",0,".",".",".",".",".",".",0,".",".",".",".",0,"_",".",".",".",".",".",".",".",".",4,"h",5,".",".",".","."],[".",".",".",".",".",".",".",".",".",".",".",".",".",".",".",".","_",".",".",".",".",".",".",".",".",".",".",".",".",".",".","."],[".",".",".",".",".",".",".",".",".",".",".",".",".",".",".",".","_",".",".",".",".",".",".",".",".",".",".",".",".",".",".","."]],[[0],[0],[0],[5],[0],[0]],[[0,0,0,0,0,0,0,0],[0,0,0,0,0,0,0,0],[0,0,0,0,0,0,0,0],[5,5,4,4,5,5,9,9],[0,0,2,2,4,4,7,7],[0,0,2,2,4,4,7,7]],[[0,0,0,0,0,0,0,0,0,0,0,0,0,0,0,0],[0,0,0,0,0,0,0,0,0,0,0,0,0,0,0,0],[0,0,0,0,0,0,0,0,7,7,7,7,7,7,7,7],[5,5,4,4,5,5,5,5,9,9,9,9,9,9,9,9],[0,0,2,2,4,4,4,4,0,0,0,0,0,0,0,0],[0,0,2,2,4,4,4,4,".",".",".",".",".",".",".","."]],[[".",7,0,".",".","_",".",7,0,".",".",".",".","."],[".",".",".",7,0,"_",".",".",".",7,0,0,0,0],[7,".",0,".",".","_",7,".",0,".",".",0,2,4],[".",".",".",".",".","_",".",".",".",".",".",".",".","."],[".",".",".",".",".","_",".",".",".",".",".",".",".","."],[".",".",".",".",".","_",".",".",".",".",".",".",".","."]],[[".",7,0,".",".","_",".",7,0,".",".",".",".","."],[".",".",".",7,0,"_",".",".",".",7,0,0,0,0],[7,".",0,".",".","_",7,".",0,".",".",4,2,0],[".",".",".",".",".","_",".",".",".",".",".",".",".","."],[".",".",".",".",".","_",".",".",".",".",".",".",".","."],[".",".",".",".",".","_",".",".",".",".",".",".",".","."]],[[5,"p",0,".",".",".","_",5,"p",0,".",".",".",".",".",".",".",".",".",".",".",".",".",".",".",".",".",".",".",".",".",".",".",".",".",".",".",".",".",".",".",".",".","."],[".",".",".",3,"p",0,"_",".",".",".",3,"p",0,".",".",".",0,".",".",".",".",".",".",".",".",".",".",3,"p",0,1,"h",3,"p",1,"p",0,".",".",".",0,".",".","."],[".",".",".",".",".",".","_",".",".",".",".",".",".",0,"h",2,".",2,"p",0,".",".",".",".",".",0,".",".",".",".",".",".",".",".",".",".",".",0,"h",2,".",2,"p",0],[".",".",".",".",".",".","_",".",".",".",".",".",".",".",".",".",".",".",".",".",0,"h",2,"h",4,".",4,".",".",".",".",".",".",".",".",".",".",".",".",".",".",".",".","."],[".",".",".",".",".",".","_",".",".",".",".",".",".",".",".",".",".",".",".",".",".",".",".",".",".",".",".",".",".",".",".",".",".",".",".",".",".",".",".",".",".",".",".","."],[".",".",".",".",".",".","_",".",".",".",".",".",".",".",".",".",".",".",".",".",".",".",".",".",".",".",".",".",".",".",".",".",".",".",".",".",".",".",".",".",".",".",".","."]],[[0,0,0,0,0,0,0,0,0,0,0,0,0,0,0,0,0,0],[0,0,0,0,0,0,0,0,0,0,0,0,0,0,0,0,0,0],[2,0,0,2,4,4,4,4,2,0,0,2,4,4,7,7,7,7],[".",".",".",".",".",".",".",".",".",".",".",".",".",".",".",".",".","."],[".",".",".",".",".",".",".",".",".",".",".",".",".",".",".",".",".","."],[".",".",".",".",".",".",".",".",".",".",".",".",".",".",".",".",".","."]],[[9,"p",0,".",".","_",9,"p",0,".",".","_",".",".",".",".",".",".",".","_",".",".",".",".",".",".","_",".",".",".",".",".",".",".","_",".",".",".",".",".",0,".",".",".",".",".",".","."],[".",".",".",8,".","_",".",".",".",8,".","_",0,0,".",0,".",0,0,"_",".",".",".",".",".",".","_",".",".",".",".",".",".",".","_",5,"h",7,"p",5,".",0,0,".",0,".",0,0],[".",".",".",".",7,"_",".",".",".",".",7,"_",".",5,"h",7,"p",5,4,"_",".",".",".",".",".",0,"_",2,"h",4,"p",2,"p",0,"_",".",".",".",".",".",".",".",5,"h",7,"p",5,4],[".",".",".",".",".","_",".",".",".",".",".","_",".",".",".",".",".",".",".","_",0,"h",2,"h",4,".","_",".",".",".",".",".",".",".","_",".",".",".",".",".",".",".",".",".",".",".",".","."],[".",".",".",".",".","_",".",".",".",".",".","_",".",".",".",".",".",".",".","_",".",".",".",".",".",".","_",".",".",".",".",".",".",".","_",".",".",".",".",".",".",".",".",".",".",".",".","."],[".",".",".",".",".","_",".",".",".",".",".","_",".",".",".",".",".",".",".","_",".",".",".",".",".",".","_",".",".",".",".",".",".",".","_",".",".",".",".",".",".",".",".",".",".",".",".","."]],[[".",".",".",".",".",".",".",".","."],[".",".",0,0,0,0,0,0,0],[".",".",0,0,0,0,0,0,0],[2,"p",0,0,2,4,5,7,9],[".",".",".",".",".",".",".",".","."],[".",".",".",".",".",".",".",".","."]],[[0,0,0,0],[0,0,0,8],[0,0,0,7],[5,4,5,9],[0,2,4,0],[0,2,4,"."]]],"numberofstrings":6,"notes":["E","CsDb","A","E","A","D","B"],"capo":"6","stringnotes":["E4","Db6","A1","E5","A2","D6"],"comments":["Stave 1:","Stave 2:","Stave 3:","Stave 4:","Stave 5:","Stave 6:","Stave 7:","Stave 8:","Stave 9:","Stave 10:","Stave 11:","Stave 12:"],"timing":[["W","W","W","W","W","W","W",null,"W","W","W","W",null,"W","W","W","W","W","W","W","W","W","W","W","W","W","W","W"],["W","W","W","W","W","W","W",null,"W","W","W","W",null,"W","W","W",null,"W",null,"W",null,"W","W","W","W","W","W","W","W","W","W","W"],["W"],["W","W","W","W","W","W","W","W"],["W","W","W","W","W","W","W","W","W","W","W","W","W","W","W","W"],["W","W","W","W","W","W","W","W","W","W","W","W","W","W"],["W","W","W","W","W",null,"W","W","W","W","W","W","W","W"],["W",null,"W","W",null,"W",null,"W",null,"W","W",null,"W","W",null,"W","W","W",null,"W","W",null,"W",null,"W","W","W","W",null,"W","W",null,"W",null,"W",null,"W","W",null,"W","W","W",null,"W"],["W","W","W","W","W","W","W","W","W","W","W","W","W","W","W","W","W","W"],["W",null,"W","W","W",null,"W",null,"W","W","W",null,"W","W","W","W",null,"W","W",null,"W",null,"W",null,"W","W",null,"W",null,"W",null,"W",null,"W",null,"W","W","W",null,"W","W","W","W",null,"W",null,"W","W"],["W",null,"W","W","W","W","W","W","W"],["W","W","W","W","W"]],"timingvisible":false,"tabcounter":3,"stave":11,"totalstaves":12,"instrument":"6guitar","selectedtuning":"6_standard","version":"13"}

Member for

1 month 1 week
Submitted by aceturner on Thu, 2020-05-28 21:22