Sound will begin in 5 seconds

Get In The Pit

01234567891011121314151617181920212223
E
B
G
D
A
E
B
0 1 2 3 4 5 6 7 8 9 10 11 12 13 14 15 16 17 18 19 20 21 22 23
Song Science #1: How Pros Use 6 Chords to Write Hit Songs
(/) Slide Up  (\) Slide Down  (h) Hammer On  (p) Pull Off  (b) Bend (r) Release (v) Vibrato

Stave 1:

G|-------------------------------------------------------------------
D|-------------------------------------------------------------------
A|--------------------------5h7p5v--------------------------3--2--1--
E|--0--0--0--0--0--0--0--0----------0--0--0--0--0--0--0--0-----------

Stave 2:

G|-------------------------------------------
D|-------------------------------------------
A|-------------------------------------------
E|--3\1--0--0--0--0--0--0--0--0--0--0--0--0--

Stave 3:

G|-----------
D|-----------
A|--3--2--1--
E|-----------

Stave 4:

G|-------------------------------------------------
D|-------------------------------------------------
A|-------------------------3--------2--------1-----
E|--3\1--0--0--0--0--0--0-----0--0-----0--0-----0--

Stave 5:

G|--------------------------------------------------
D|--------------------------------------------------
A|-----------------------5--------------------------
E|--0--0--5--7--8--7--8-----8--7--5--3--5--3--2--3--

Stave 6:

G|--------------------------------------------------
D|--------------3--3--3--3--------------2--2--2--2--
A|--------------------------------------------------
E|--3--3--3--3--------------2--2--2--2--------------

Stave 7:

G|------------------------------------------------
D|------------------------------------------------
A|------------------------------------------------
E|--3--3--3--3--3--3--3/5--2--2--2--2--2--2--2/3--

Stave 8:

G|--------------------------------------
D|--------------------------------------
A|--------------------------------------
E|--0--0--0--0--0--0--0--0--2--0--2--3--

http://www.guitartabcreator.com
Guitar Tab Creator is intended to store guitar tab created through the tool. It currently does not support in-line text editing. Any text you place in here will be lost. If you need to comment on your tab, please use the "Tab Notes" section located below.