Sound will begin in 5 seconds

Okayalright - Moe

Chords
01234567891011121314151617181920212223
E
B
G
D
A
E
B
0 1 2 3 4 5 6 7 8 9 10 11 12 13 14 15 16 17 18 19 20 21 22 23
(/) Slide Up  (\) Slide Down  (h) Hammer On  (p) Pull Off  (b) Bend (r) Release (v) Vibrato

Stave 1:

E|---------15-------------------------10-------------------------------------------
B|-----12------15--12--------------7------7\7--------------------------------------
G|--14/--------------\14--12-----9/------------9--7--------------------------------
D|------------------------------------------------------8--7--5--------------------
A|------------------------------------------------------8--7--5--------3--------3--
E|------------------------------------------------------6--5--3-----1--------1-----

Stave 2:

E|--------------------------------------------------
B|--------------------------------------------------
G|-----------------------------------5--5-----------
D|--------0--------0--------3--3-----5--5-----5--5--
A|-----2--------2-----1--0--3--3-----3--3-----5--5--
E|--3--------2--------------1--1--------------3--3--

Stave 3:

E|--------------------------------------------------------
B|--------------------------------------------------------
G|--------------------------------------------------------
D|--------0-----------0-----------------------------------
A|-----2-----------2--------1--0--------------3--------3--
E|--3-----------2-----------------3--3-----1--------1-----

http://www.guitartabcreator.com
Guitar Tab Creator is intended to store guitar tab created through the tool. It currently does not support in-line text editing. Any text you place in here will be lost. If you need to comment on your tab, please use the "Tab Notes" section located below.