Sound will begin in 5 seconds

Virtous (in the works) also

Chords
01234567891011121314151617181920212223
E
B
G
D
A
E
B
0 1 2 3 4 5 6 7 8 9 10 11 12 13 14 15 16 17 18 19 20 21 22 23
Song Science #1: How Pros Use 6 Chords to Write Hit Songs
(/) Slide Up  (\) Slide Down  (h) Hammer On  (p) Pull Off  (b) Bend (r) Release (v) Vibrato

Stave 1:

E|-17----------------|-------------------|----17-------------|-------------------
B|----17-18-17-15----|----17-15----18-18-|-17----20----17----|----21-------------
G|----------------14-|-17-------15-------|----18----18-------|-------17-20-21-20-
D|-------------------|-------------------|----------------21-|-18----------------
A|-------------------|-------------------|-------------------|-------------------
E|-------------------|----------------18-|-------------------|-------------------

Stave 2:

E|-5-----------|-------------|---5---------|--------------
B|---5-6-5-3---|---5-3---6-6-|-5---8---5---|---9----------
G|-----------2-|-5-----3-----|-------6-----|-----5-8-9----
D|-------------|-------------|-----------9-|-6------------
A|-------------|-------------|-------------|--------------
E|-------------|-------------|-------------|--------------

http://www.guitartabcreator.com
Guitar Tab Creator is intended to store guitar tab created through the tool. It currently does not support in-line text editing. Any text you place in here will be lost. If you need to comment on your tab, please use the "Tab Notes" section located below.