Sound will begin in 5 seconds

Virtous (in the works)

Chords
01234567891011121314151617181920212223
E
B
G
D
A
E
B
0 1 2 3 4 5 6 7 8 9 10 11 12 13 14 15 16 17 18 19 20 21 22 23
Song Science #1: How Pros Use 6 Chords to Write Hit Songs
(/) Slide Up  (\) Slide Down  (h) Hammer On  (p) Pull Off  (b) Bend (r) Release (v) Vibrato

Stave 1:

E|--------------------------------------------------------------------------------------------------
B|-----------------------------7---------------------9-10-11-12-11-10-9--------9-----7-8-9-10-9-8-7-
G|-------4-----6-7-6---6---6-7---7---6-----6------------------------------9-11----------------------
D|-4-6-7---7-9-------9---9---------9---6-7---7-6-3----------------------9---------------------------
A|-------------------------------------------------7-----------------------------6-5----------------
E|--------------------------------------------------------------------------------------------------

Stave 2:

E|---------------------------------------------12----14-------12---------12----14-------12-
B|-------7-----5-6-7-8-7-6-5-------5-----11------------------------11----------------------
G|---7-9-----------------------5-7----------10----11----11\10---------10----11----11\10----
D|-7-------------------------5---------9-------------------------9-------------------------
A|---------4-3-----------------------3-----------------------------------------------------
E|-----------------------------------------------------------------------------------------

Stave 3:

E|------------------------------------------------------------------------------------------------
B|-----------------------------------------12-----------------------------11-12-13-14-13-12-11----
G|---------9-------11-12-11----11----11-12----12----11-------11-----------------------------------
D|-9-11-12---12-14----------14----14-------------14----11-12----12-11-8------------------------11-
A|----------------------------------------------------------------------9-------------------------
E|------------------------------------------------------------------------------------------------

Stave 4:

E|-----------------------------------------------------------------------
B|-------11-----9-10-11-12-11-10-9--------9-----7-8-9-10-9-8-7-------7---
G|-11-13-----------------------------9-11------------------------7-9-----
D|---------------------------------9---------------------------7---------
A|----------8-7-----------------------------6-5------------------------5-
E|-----------------------------------------------------------------------

Stave 5:

E|----------------------------------
B|----------------------------------
G|---6---------------------6---7----
D|---------6-----5-----6------------
A|-4---7-4---7-4---7-4---4---4------
E|----------------------------------

Stave 6:

E|---2-----2-14-
B|-----4--------
G|-----2--------
D|-----4--------
A|-----3--------
E|-2-----2------

Stave 7:

E|---2------------------14-----------------------------------------------14-17-
B|-----3-3-------------------------------9h10-------12h14-12-------12-16-------
G|-----2-2-2-3-2----------------------11------11-------------11-14-------------
D|-----4-4-------4-3------------10-13------------11----------------------------
A|-----3-3-----------------9-12------------------------------------------------
E|-2---------------------------------------------------------------------------

Stave 8:

E|-------------13----------------
B|----------------16----13-------
G|----------15-------13----12----
D|-15-14-15-------------------15-
A|-------------------------------
E|-------------------------------

Stave 9:

E|-------------------------------|----------14----12-16-16----------12-
B|----------14-------14-17-14----|-------------14----------14-12-14----
G|-------------16-14----------16-|-14-13-14----------------------------
D|-16-14-16----------------------|-------------------------------------
A|-------------------------------|-------------------------------------
E|-------------------------------|-------------------------------------

Stave 10:

E|-19-19-19-19----------------------
B|-------------19-15-17----15-------
G|----------------------18----16----
D|-------------------------------16-
A|----------------------------------
E|----------------------------------

Stave 11:

E|--------------------------|----------------------------
B|--------------------------|----------------------------
G|----------------------3---|-----------------------9----
D|-----------6-3-3----------|---------------12-9---------
A|-4-7-----5----------5---7-|-10-13------11------11---13-
E|-----3-6------------------|-------9-12-----------------

Stave 12:

E|-------------------|-12-12-12----------17-15-------|-13-------20-17----|----22-17----17-18-15-17-18-
B|----------13-------|----------13-------------13-17-|----14-15-------20-|-18-------18----------------
G|-------------15-14-|-------------14-14-------------|-------------------|----------------------------
D|-12-14-15----------|-------------------------------|-------------------|----------------------------
A|-------------------|-------------------------------|-------------------|----------------------------
E|-------------------|-------------------------------|-------------------|----------------------------

Stave 13:

E|-17-------|-------------|----------------------|----12-13-15-|-17-------------20-|-17-18-17-15-
B|----18-17-|-15-13-------|-------13-17-15-13----|-------------|----13----13-17----|-------------
G|----------|-------14----|----16-------------15-|-14----------|-------15----------|-------------
D|----------|----------15-|----------------------|-------------|-------------------|-------------
A|----------|-------------|-13-------------------|-------------|-------------------|-------------
E|----------|-------------|----------------------|-------------|-------------------|-------------

Stave 14:

E|-------
B|-18-17-
G|-------
D|-------
A|-------
E|-------

http://www.guitartabcreator.com
Guitar Tab Creator is intended to store guitar tab created through the tool. It currently does not support in-line text editing. Any text you place in here will be lost. If you need to comment on your tab, please use the "Tab Notes" section located below.