Sound will begin in 5 seconds

Tango (in progress)

01234567891011121314151617181920212223
E
B
G
D
A
E
B
0 1 2 3 4 5 6 7 8 9 10 11 12 13 14 15 16 17 18 19 20 21 22 23
Song Science #1: How Pros Use 6 Chords to Write Hit Songs
(/) Slide Up  (\) Slide Down  (h) Hammer On  (p) Pull Off  (b) Bend (r) Release (v) Vibrato

Stave 1:

E|-20-18-------18-------16----------15-------13-10------11-10-8----
B|-------20-15----18-15----18-15-13----16-11-------12-8---------12-
G|-----------------------------------------------------------------
D|-----------------------------------------------------------------
A|-----------------------------------------------------------------
E|-----------------------------------------------------------------

Stave 2:

E|-20-18-------18-------16----------15----------------------
B|-------20-15----18-15----18-15-------16-------16-15-------
G|-------------------------------17-------15----------17-16-
D|-------------------------------------------17-------------
A|----------------------------------------------------------
E|----------------------------------------------------------

Stave 3:

E|------------------------------------------10h11p10-------10-13-15v-
B|---------------6-------------11----11-13v----------11-11-----------
G|-5---5-8-7---7---8---8-12-10----12---------------------------------
D|---5-------8-------8-----------------------------------------------
A|-------------------------------------------------------------------
E|-------------------------------------------------------------------

Stave 4:

E|-15-11-------13-10-11-8-10-6-----8-4-7-3-
B|-------12--------------------7-----------
G|----------11-------------------6---------
D|-----------------------------------------
A|-----------------------------------------
E|-----------------------------------------

http://www.guitartabcreator.com
Guitar Tab Creator is intended to store guitar tab created through the tool. It currently does not support in-line text editing. Any text you place in here will be lost. If you need to comment on your tab, please use the "Tab Notes" section located below.