Sound will begin in 5 seconds

So We Say

01234567891011121314151617181920212223
E
B
G
D
A
E
B
0 1 2 3 4 5 6 7 8 9 10 11 12 13 14 15 16 17 18 19 20 21 22 23
Song Science #1: How Pros Use 6 Chords to Write Hit Songs
(/) Slide Up  (\) Slide Down  (h) Hammer On  (p) Pull Off  (b) Bend (r) Release (v) Vibrato

Stave 1:

E|------12-------------------12------10--13--12--11----------------------
B|--10------10\9/10------13------11------------------15--14--13--12--11--
G|-------------------14--------------------------------------------------
D|-----------------------------------------------------------------------
A|-----------------------------------------------------------------------
E|-----------------------------------------------------------------------

Stave 2:

E|------10--------------10--13--11--10--------------12--------------12--15--13--12----------
B|--11--------------11------------------13--11--13--------------13------------------15--13--
G|--------------12------------------------------------------14------------------------------
D|----------13------------------------------------------15----------------------------------
A|------------------------------------------------------------------------------------------
E|------------------------------------------------------------------------------------------

Stave 3:

E|------13--17--17/18\17------17----------17--20--20--22--20--17--18--17------
B|--15----------------------------17--18----------------------------------20--
G|------------------------19--------------------------------------------------
D|----------------------------------------------------------------------------
A|----------------------------------------------------------------------------
E|----------------------------------------------------------------------------

Stave 4:

E|------19--19-----------------------------------------------------------------17--20--
B|--20----------17--20------17---------------------------------------------18----------
G|----------------------19------16--19--14--16------14---------------------------------
D|----------------------------------------------17------14--17--12--14-----------------
A|----------------------------------------------------------------------9--------------
E|-------------------------------------------------------------------------------------

Stave 5:

E|--
B|--
G|--
D|--
A|--
E|--

Stave 6:

E|------17--20----------17--20--18--17--18--17------
B|--18--------------18--------------------------20--
G|--------------17----------------------------------
D|--------------------------------------------------
A|--------------------------------------------------
E|--------------------------------------------------

Stave 7:

E|------17--20----------17--18--17----------17------------------------------------------13------------------------------
B|--18--------------18--------------20--18------18--16------16----------------------15------15----------------------12--
G|--------------17--------------------------------------17------17--15--14--14--17--------------15----------------------
D|--------------------------------------------------------------------------------------------------15--14--13--13------
A|----------------------------------------------------------------------------------------------------------------------
E|----------------------------------------------------------------------------------------------------------------------

Stave 8:

E|----------
B|------12--
G|----------
D|--13------
A|----------
E|----------

Stave 9:

E|----------10--------------10--13--11--10----------------------------------10--12--10------10------
B|------11--------------11------------------11--13----------10----------10--------------10----------
G|------------------12----------------------------------13----------13--------------------------12--
D|--13----------13----------------------------------12----------12----------------------------------
A|--------------------------------------------------------------------------------------------------
E|--------------------------------------------------------------------------------------------------

Stave 10:

E|------13--17----------13--18--17--13------15--12----------13--10----------12--10----------
B|--15--------------15------------------15----------13--------------11--------------11--10--
G|--------------14--------------------------------------14--------------12------------------
D|------------------------------------------------------------------------------------------
A|------------------------------------------------------------------------------------------
E|------------------------------------------------------------------------------------------

http://www.guitartabcreator.com
Guitar Tab Creator is intended to store guitar tab created through the tool. It currently does not support in-line text editing. Any text you place in here will be lost. If you need to comment on your tab, please use the "Tab Notes" section located below.