Sound will begin in 5 seconds

Maple Tree Composition

01234567891011121314151617181920212223
E
B
G
D
A
E
B
0 1 2 3 4 5 6 7 8 9 10 11 12 13 14 15 16 17 18 19 20 21 22 23
Song Science #1: How Pros Use 6 Chords to Write Hit Songs
(/) Slide Up  (\) Slide Down  (h) Hammer On  (p) Pull Off  (b) Bend (r) Release (v) Vibrato

Stave 1:

E|----------------------------------------------------------------------------
B|-------10-------15-14v----------10-14-15-14-12-10v----------10-------15-14v-
G|-10-12----12-10-----------10-12-----------------------10-12----12-10--------
D|----------------------------------------------------------------------------
A|----------------------------------------------------------------------------
E|----------------------------------------------------------------------------

Stave 2:

E|-------------12----------------15-14-12-----------------------
B|----10-14-15----15-14-12-10-------------15-14----10----14-12v-
G|-12-------------------------12----------------12----12--------
D|--------------------------------------------------------------
A|--------------------------------------------------------------
E|--------------------------------------------------------------

Stave 3:

E|----------10-12-10--------------------10-12-10----12v-------------10-15-14-12----------
B|-10-12-14----------14-12v----10-12-14----------14--------10-12-14-------------15-14-12-
G|---------------------------------------------------------------------------------------
D|---------------------------------------------------------------------------------------
A|---------------------------------------------------------------------------------------
E|---------------------------------------------------------------------------------------

Stave 4:

E|-17-15-14----------15-14-------------------------------------------------12-------14-12-10----------
B|----------17-15-14-------15-14----------------------------------14----14-------14----------14-12-11-
G|-------------------------------16-15-------------------15----15----15-------15----------------------
D|-------------------------------------17-16-14-16-14-16----16----------------------------------------
A|----------------------------------------------------------------------------------------------------
E|----------------------------------------------------------------------------------------------------

Stave 5:

E|----------------10-12-10-------
B|----12----10-14----------14-12-
G|-14----14----------------------
D|-------------------------------
A|-------------------------------
E|-------------------------------

Stave 6:

E|----------------16p14----17p16----19-19-16p14----------------------------
B|-------------------------------------------------17p16-------16-17-18-19-
G|----13-14-15-16-------16-------16-------------16-------16-16-------------
D|-14----------------------------------------------------------------------
A|-------------------------------------------------------------------------
E|-------------------------------------------------------------------------

Stave 7:

E|-22-21-20-19-17-19/21-21----------------21-------------------------------------
B|----------------------------19----19-20----20-19----20-19-------19-------------
G|-------------------------21----21----------------21-------21-19----19-17h18----
D|-------------------------------------------------------------------------------
A|----------------------------------------------------------------------------19-
E|-------------------------------------------------------------------------------

Stave 8:

E|----------16-19-21-19-17-16-17----------16-19-17-16----16----------16-17-16-14----14-
B|-16-17-19----------------------16-17-19-------------19----16-17-19-------------17----
G|-------------------------------------------------------------------------------------
D|-------------------------------------------------------------------------------------
A|-------------------------------------------------------------------------------------
E|-------------------------------------------------------------------------------------

Stave 9:

E|---5---------------------------------------9----11-9-12-11-10-9-14-13-12-11-14----14----
B|-----9---9--------------------9---7-10-9-----10--------------------------------14-------
G|-------5---5----------------8---8--------8-------------------------------------------11-
D|-6-----------6-7-6-5-7-6-10-------------------------------------------------------------
A|----------------------------------------------------------------------------------------
E|----------------------------------------------------------------------------------------

Stave 10:

E|-16----16-17-16-
B|----------------
G|----13----------
D|----------------
A|----------------
E|----------------

http://www.guitartabcreator.com
Guitar Tab Creator is intended to store guitar tab created through the tool. It currently does not support in-line text editing. Any text you place in here will be lost. If you need to comment on your tab, please use the "Tab Notes" section located below.