Sound will begin in 5 seconds

Manatee Solo

01234567891011121314151617181920212223
E
B
G
D
A
E
B
0 1 2 3 4 5 6 7 8 9 10 11 12 13 14 15 16 17 18 19 20 21 22 23
Song Science #1: How Pros Use 6 Chords to Write Hit Songs
(/) Slide Up  (\) Slide Down  (h) Hammer On  (p) Pull Off  (b) Bend (r) Release (v) Vibrato

Stave 1:

E|---------------------------------------------------------------------------------------
B|-17----17-15-13-13-15-13-18-17-17----------17-15-15-15-13-13-13------------------------
G|----------------------------------12-12-------------------------14-12-12-10-10-9-10-12-
D|---------------------------------------------------------------------------------------
A|---------------------------------------------------------------------------------------
E|---------------------------------------------------------------------------------------

Stave 2:

E|------------------------10-12----12-12-13-15----13-12-13----13-12----------------------
B|------------13-13-10----------------------------------------------13-------------------
G|-12-9----------------12----------------------------------------------12-10-9-----------
D|------10---------------------------------------------------------------------10--------
A|--------------------------------------------------------------------------------10-7---
E|-------------------------------------------------------------------------------------8-

Stave 3:

E|----------------------------------------------------------------------------------------------------
B|----------------------------------------------------------------------------------------------------
G|----------------------------------------------------------------------------------7/9-7-----------7-
D|-----------------7-----------------------------7------------------10---10------10-------10-9-9-10---
A|-7-7-8-10-7-8-10---10-8-7----7-7-7-8-10-7-8-10---10-8----7----7-8----8-------8----------------------
E|--------------------------10-------------------------------10---------------------------------------

Stave 4:

E|-------------------------------------12-13----12----13-12-12------------------------------------------
B|-------------------------10-12-13-15-------------15----------15-13-13-12-13-13-12-12------------------
G|-----------------9-10-12-------------------------------------------------------------14-14-12-12-10-9-
D|-10-9----9-10-12--------------------------------------------------------------------------------------
A|------10----------------------------------------------------------------------------------------------
E|------------------------------------------------------------------------------------------------------

Stave 5:

E|----------------------------------------------------------------------------------------------
B|--------------------------------------------------10---------10-12-13-17----12-12-------------
G|-9--------------------------------9-------9-10-12----9-10-12----------------------14-14-12----
D|---12-12----12-9-10-------9-10-12---10-12--------------------------------------------------14-
A|--------------------10-12---------------------------------------------------------------------
E|----------------------------------------------------------------------------------------------

Stave 6:

E|-------------------------------------------------------------------------------------------------
B|-12-12-------------12-------------12-------------13-------------15-------------17-------------19-
G|-------14-14-12----------------12-------------12-------------12-------------14-------------14----
D|----------------14-------12-14-------12-13-14-------12-13-14-------14-15-16-------14-15-16-------
A|----------------------10-------------------------------------------------------------------------
E|-------------------------------------------------------------------------------------------------

Stave 7:

E|----------------
B|-------------20-
G|----------14----
D|-14-15-16-------
A|----------------
E|----------------

http://www.guitartabcreator.com
Guitar Tab Creator is intended to store guitar tab created through the tool. It currently does not support in-line text editing. Any text you place in here will be lost. If you need to comment on your tab, please use the "Tab Notes" section located below.