Sound will begin in 5 seconds

future comp

Chords
01234567891011121314151617181920212223
E
B
G
D
A
E
B
0 1 2 3 4 5 6 7 8 9 10 11 12 13 14 15 16 17 18 19 20 21 22 23
Song Science #1: How Pros Use 6 Chords to Write Hit Songs
(/) Slide Up  (\) Slide Down  (h) Hammer On  (p) Pull Off  (b) Bend (r) Release (v) Vibrato

Stave 1:

E|-------4h5-4-------------------------------------|-------------------------------------
B|-----5-------5------------5h7-5---------7-8-9-10-|-----7-9-10-9p7-----7-9-9p7-----9-10-
G|---6-----------6--------4-------4-----6----------|---9------------9-----------9--------
D|-7---------------7----5-----------5-7------------|-9----------------7-----------7------
A|-------------------------------------------------|-------------------------------------
E|-------------------------------------------------|-------------------------------------

Stave 2:

E|----------16-17-|-14----------------------|-------------14----14-|-11----------------------------
B|-------12-------|----15-------------------|----------16----------|----13----------11-12-13----13-
G|----13----------|-------16----------------|----12-16-------------|-------13----13----------------
D|-14-------------|----------14-12----16-12-|-14-------------------|----------13-------------------
A|----------------|-------------------------|----------------------|-------------------------------
E|----------------|-------------------------|----------------------|-------------------------------

Stave 3:

E|-------3h4-3------------------------------------|-------------------|---------------------------
B|-----4-------4------------4h6-4---------6-7-8-9-|-----8-9-8h9-11-11-|-8-------------6---4-------
G|---5-----------5--------3-------3-----5---------|---8------------8--|---6---------4---4---2-----
D|-6---------------6----4-----------4-6-----------|-8--------------9--|-----8-----6-----------4---
A|------------------------------------------------|-------------------|-------6-4---------------2-
E|------------------------------------------------|-------------------|---------------------------

Stave 4:

E|-
B|-
G|-
D|-
A|-
E|-

Stave 5:

E|-----------------------6-|----------------------------------|-------6h7-6---------------------
B|-----------3---3-6-3-6---|-----4------------------3---------|-----7-------7---------7h9-7-----
G|---------1---1-----------|-------3------------------1-------|---8-----------6-----6-------6---
D|-4-----3-----------------|---4-----4------------3-----3-----|-9---------------8-7-----------7-
A|---2-1-------------------|-2---------2-2----2-1---------1-1-|---------------------------------
E|-------------------------|----------------------------------|---------------------------------

Stave 6:

E|----------------|----------18-19-16-------------------------------18-19-18-------
B|-----9-10-11-12-|-------14----------17-17----------------------14----------19----
G|---8------------|----15-------------------18----------------15-------------------
D|-9--------------|-16----------------------------14-18-14-16----------------------
A|----------------|----------------------------16----------------------------------
E|----------------|----------------------------------------------------------------

http://www.guitartabcreator.com
Guitar Tab Creator is intended to store guitar tab created through the tool. It currently does not support in-line text editing. Any text you place in here will be lost. If you need to comment on your tab, please use the "Tab Notes" section located below.