Sound will begin in 5 seconds

Fulvio Comp

01234567891011121314151617181920212223
E
B
G
D
A
E
B
0 1 2 3 4 5 6 7 8 9 10 11 12 13 14 15 16 17 18 19 20 21 22 23
Song Science #1: How Pros Use 6 Chords to Write Hit Songs
(/) Slide Up  (\) Slide Down  (h) Hammer On  (p) Pull Off  (b) Bend (r) Release (v) Vibrato

Stave 1:

E|-------2-5-4----------|-------2-5-4-7------|-------2-5-4----------|---------|---------
B|-3\2/3-------5---5----|-3\2h3---------5----|-3\2/3-------5---5----|-3-2-3---|-3-2-3---
G|---------------6------|--------------------|---------------6------|-------4-|---------
D|----------------------|--------------------|----------------------|---------|-------5-
A|----------------------|--------------------|----------------------|---------|---------
E|----------------------|--------------------|----------------------|---------|---------

Stave 2:

E|-------4-7-5----------|-------4-7-5-9---|------------7-|---------------------|---------------12---
B|-5\4/5-------5---5----|-5\4/5---------5-|-------7-10---|------------------10-|------------10------
G|---------------6------|-----------------|-7\6/7--------|----------------9----|---------11-------9-
D|----------------------|-----------------|--------------|-11\10/11----11------|-9-11-12------------
A|----------------------|-----------------|--------------|----------12---------|--------------------
E|----------------------|-----------------|--------------|---------------------|--------------------

Stave 3:

E|------------19-17-------------------------------------14-------------
B|------------------17----15-17-------------14-15----17----15----------
G|-11-9----------------16-------16-------16-------------------14----16-
D|------12-------------------------------------------------------16----
A|---------------------------------------------------------------------
E|---------------------------------------------------------------------

Stave 4:

E|---------------------5---9----10-12-9----------|-----------------------10----
B|-------------2---5-2---5--------------10----12-|--------------7---10-7----10-
G|---------2-----2-------------------------11----|----------7-----7------------
D|-----2-----2-----------------------------------|------7-----7----------------
A|---4---4---------------------------------------|----9---9--------------------
E|-5---------------------------------------------|-10--------------------------

Stave 5:

E|---------------------9---|---------------------6---
B|-----------------9-----9-|-----------------6-3---6-
G|---------6---9-6---9-----|---------3---6-3---------
D|-----6-----6-------------|-----3-----3-------------
A|---7---7-----------------|---4---4-----------------
E|-9-----------------------|-6-----------------------

http://www.guitartabcreator.com
Guitar Tab Creator is intended to store guitar tab created through the tool. It currently does not support in-line text editing. Any text you place in here will be lost. If you need to comment on your tab, please use the "Tab Notes" section located below.