Sound will begin in 5 seconds

*FULVIO*

Chords
01234567891011121314151617181920212223
E
B
G
D
A
E
B
0 1 2 3 4 5 6 7 8 9 10 11 12 13 14 15 16 17 18 19 20 21 22 23
Song Science #1: How Pros Use 6 Chords to Write Hit Songs
(/) Slide Up  (\) Slide Down  (h) Hammer On  (p) Pull Off  (b) Bend (r) Release (v) Vibrato

Stave 1:

E|-------7---
B|-7-----6-7-
G|-8-----8-0-
D|-9-----5-0-
A|-10------7-
E|-0-------0-

Stave 2:

E|----------------15-14-------------------------------------15----19-17----------19----22----
B|-------------17-------15-------------------------------------17-------17-18-15----------22-
G|-------------------------------------------------12----16-------------------------16-------
D|-12-13-14-17-------------17-14-------12----14-------12-------------------------------------
A|----------------------------------14----14----14-------------------------------------------
E|-------------------------------15----------------------------------------------------------

Stave 3:

E|-------------------------|-------------------17----17----------------------------12-13-13----
B|-17----17----17----------|----------------15----15----13-15-15-15-------13-14-16-------------
G|----16----16-------------|----------14-16-------------------------14-15----------------------
D|----------------14-14-14-|-12-13-12-------------------------------------------------------15-
A|-------------------------|-------------------------------------------------------------------
E|-------------------------|-------------------------------------------------------------------

Stave 4:

E|----------------------------18----21-20-19-17----|-------------------------------15----------
B|-------------------------15-------------------18-|----------17----18-------14-17-------17----
G|-------14----14-15-17-18-------18----------------|-15-16-17----17----15-17----------17-------
D|-16-15----15-------------------------------------|----------------------------------------17-
A|-------------------------------------------------|-------------------------------------------
E|-------------------------------------------------|-------------------------------------------

Stave 5:

E|-------------------------|----
B|----13-14-16-------------|----
G|-13----------15-12-------|-14-
D|-------------------13-14-|----
A|-------------------------|----
E|-------------------------|----

http://www.guitartabcreator.com
Guitar Tab Creator is intended to store guitar tab created through the tool. It currently does not support in-line text editing. Any text you place in here will be lost. If you need to comment on your tab, please use the "Tab Notes" section located below.