Sound will begin in 5 seconds

Embraceable You (2)

Chords
01234567891011121314151617181920212223
E
B
G
D
A
E
B
0 1 2 3 4 5 6 7 8 9 10 11 12 13 14 15 16 17 18 19 20 21 22 23
Song Science #1: How Pros Use 6 Chords to Write Hit Songs
(/) Slide Up  (\) Slide Down  (h) Hammer On  (p) Pull Off  (b) Bend (r) Release (v) Vibrato

Stave 1:

E|------------------4--|-----------4--11--9--
B|--10--7--6--6--5--4--|--4--3--2-----9---9--
G|--9---8--7--5-----5--|--5--4--3-----9---9--
D|--7------7--4-----4--|--3-----------8---8--
A|--0------------------|--4------------------
E|------------4-----4--|--------------8------

Stave 2:

E|-----------------|----------------------------------------|--------------|--
B|-----------5--6--|-------------------------5--6h8p6--5----|--------------|--
G|--7-----7--------|--7\4--------------4--7---------------7/|--12----------|--
D|-----7-----------|-------7--4--5--6-----------------------|------10--10--|--
A|-----------------|----------------------------------------|--------------|--
E|-----------------|----------------------------------------|--------------|--

Stave 3:

E|--------------------10--11-----------------------|--------------------------|--
B|----------------10----------13/15--11/13--10/11--|------------------10--11--|--
G|------------11-----------------------------------|--12------12--------------|--
D|----11--12---------------------------------------|------12------12----------|--
A|-------------------------------------------------|--------------------------|--
E|-------------------------------------------------|--------------------------|--

Stave 4:

E|------------------------11------11---------|------------------|--
B|----------------10--13------14------13--11/|--13--------------|--
G|------------10-----------------------------|------------------|--
D|----10--11---------------------------------|------15--15--15--|--
A|-------------------------------------------|------------------|--
E|-------------------------------------------|------------------|--

Stave 5:

E|------------------------------------------------|----------------------------|--
B|------------------------------------------------|----------------------------|--
G|----12\9-----------------9----------------------|----14--14------12--12------|--
D|----------12--9--10--11-----11-----7--9---------|------------15----------15--|--
A|--------------------------------7--------10--7--|--8/12----------------------|--
E|------------------------------------------------|----------------------------|--

Stave 6:

E|--12--12--------------------------|------------------12--------------------------|--
B|----------15----------------------|------12--13--15------12--15--13----------12--|--
G|--------------14------------------|--14----------------------------------13------|--
D|------------------15--14--12--14--|----------------------------------15----------|--
A|----------------------------------|----------------------------------------------|--
E|----------------------------------|----------------------------------------------|--

Stave 7:

E|-------------------------------------------
B|-------------------------------------------
G|--14------12h14p12--11---------------------
D|------14----------------14-----------------
A|----------------------------15-------------
E|--------------------------------12/19--17--

Stave 8:

E|------------------------------------------------|------------------------------------
B|-------------------------------11------9--10----|------------------------------------
G|--9--10--12--9----------9--12------12---------8/|--9--12\10--------------------------
D|----------------12--11--------------------------|------------7--10/14\13\12--10------
A|------------------------------------------------|--------------------------------12--
E|------------------------------------------------|------------------------------------

Stave 9:

E|---------------------|---------------------------------------|----------------
B|---------------------|--13--13--13---------------------------|----------------
G|-------------12--14--|----------------15--------------14--12\|--10--10--10----
D|---------12----------|--------------------15--12--11---------|----------------
A|--13/14--------------|---------------------------------------|----------------
E|---------------------|---------------------------------------|----------------

Stave 10:

E|-------------------------|----------------------------------------|-------------------------------
B|-------------------------|--------5--6--5-----5--5-----5----------|----------------------------6--
G|--------------7----6-----|--5--7-----------7--------7-----7--6--7/|--9--7/9--7--4--------4--7-----
D|----8-----------------7--|----------------------------------------|----------------7--6-----------
A|-------10--9-------------|----------------------------------------|-------------------------------
E|-------------------------|----------------------------------------|-------------------------------

Stave 11:

E|-------------|--------------------11\10--8--------------------|----------------------------------------
B|-------------|----------------10------------11\10--8------10--|--8-------------------------------------
G|----5--5--5--|------------11--------------------------10------|-----7/14--12---------------------------
D|-------------|----11--12--------------------------------------|---------------15--12-------------------
A|-------------|------------------------------------------------|-----------------------13---------------
E|-------------|------------------------------------------------|---------------------------13/17----15--

Stave 12:

E|--------------------------------------------------------|-------------------------------|--
B|--------------------------------------------------------|-------------------13----------|--
G|---------------------14/20--18--------------------------|--------10--12/14------14--12--|--
D|-----------------15-------------18--15------------------|----10-------------------------|--
A|---------13--16-------------------------16------18--16--|-------------------------------|--
E|--13/15-------------------------------------16----------|-------------------------------|--

Stave 13:

E|------------------13--12--11--15----------------------13--------------|------------------------|--
B|----------10--13------------------15--13--11--------------------------|--13--13--11/13--11\10--|--
G|------10--------------------------------------12--14------11----------|------------------------|--
D|--13----------------------------------------------------------13--15--|------------------------|--
A|----------------------------------------------------------------------|------------------------|--
E|----------------------------------------------------------------------|------------------------|--

Stave 14:

E|----------------------------------|---------------------------------
B|--11--10--11--10------------------|--8------8-----------------------
G|------------------8--9------------|-----10-----10--------10/12\--9--
D|------------------------7------7--|----------------6--7-------------
A|---------------------------11-----|---------------------------------
E|----------------------------------|---------------------------------

Stave 15:

E|-----------------------------------------|--------5--6--8--|--9------------3--
B|-------------------------------9/16--14--|--13----5--6--8--|--9------5--6-----
G|-------7--10--9--7---------10------------|--------5--7--9--|--10-----3--------
D|----7---------------10/11----------------|--------3--5--7--|--9------5--------
A|-----------------------------------------|-----------------|--10--5--3--------
E|-----------------------------------------|-----------------|--10--------------

Stave 16:

E|-----------------|-----------------|--------------|--8---
B|-----3--5--6-----|--------5-----6--|-----3--5--6--|--8---
G|-----2-----------|-----7--------7--|-----3-----3--|--9---
D|-----3-----------|-----7--------6--|-----3-----5--|--10--
A|-----------------|--------------7--|-----------5--|--8---
E|--1-----------1--|--7--------0-----|--3-----------|--8---

http://www.guitartabcreator.com
Guitar Tab Creator is intended to store guitar tab created through the tool. It currently does not support in-line text editing. Any text you place in here will be lost. If you need to comment on your tab, please use the "Tab Notes" section located below.