Sound will begin in 5 seconds

Embraceable You

01234567891011121314151617181920212223
E
B
G
D
A
E
B
0 1 2 3 4 5 6 7 8 9 10 11 12 13 14 15 16 17 18 19 20 21 22 23
Song Science #1: How Pros Use 6 Chords to Write Hit Songs
(/) Slide Up  (\) Slide Down  (h) Hammer On  (p) Pull Off  (b) Bend (r) Release (v) Vibrato

(W|WW) Whole (H|HH) Half (Q|QQ) Quarter (E|EE) 8th (S|SS) 16th (T|TT) 32nd (X|XX) 64th

Stave 1:
t: E E Q E E E E E E E QQ Q
E|-----------------4--|-----------4--11--9--
B|--8--7--6--6--5--4--|--4--3--2-----9---9--
G|--9--8--7--5-----5--|--5--4--3-----9---9--
D|--7-----7--4-----4--|--3-----------8---8--
A|--0-----------------|--4------------------
E|-----------4-----4--|--------------8------

Stave 2:
t: Q E E E Q S S S S S S S S S T T S S S Q E E
E|---------------------|--------------------------------------------|-------------
B|-------------5--6----|----------------------------5--6h8p6--5-----|--8----------
G|----7-----7----------|----7--4--------------4--7---------------7--|-----5--5----
D|-------7-------------|----------7--4--5--6------------------------|-------------
A|---------------------|--------------------------------------------|-------------
E|---------------------|--------------------------------------------|-------------

Stave 3:
t: SS SS SS SS SS SS SS SS SS SS SS SS EE QQ SS SS EE QQ SS SS SS SS SS EE SS SS EE EE
E|--------------------10--11------10------------------|--------------------------|------------------------11------11----------
B|----------------10----------13------11--13--10--11--|------------------10--11--|----------------10--13------14------13--11--
G|------------11--------------------------------------|--12------12--------------|------------10------------------------------
D|----11--12------------------------------------------|------12------12----------|----10--11----------------------------------
A|----------------------------------------------------|--------------------------|--------------------------------------------
E|----------------------------------------------------|--------------------------|--------------------------------------------

Stave 4:
t: EE E E E S S SS S SS SS S S S S S SS S S EE EE EE E Q EE
E|--_----------|-----------------------------------------------|---------------------------
B|--13----------|----8------------------------------------------|-----10--10------8--8------
G|--_--8--8--8----|-------9--10-------------9---------------------|-------------10--------10--
D|--_----------|--------------9--10--11-----8-----7--9---------|---------------------------
A|--_----------|-------------------------------8--------10--7--|--8------------------------
E|--_----------|-----------------------------------------------|---------------------------

http://www.guitartabcreator.com
Guitar Tab Creator is intended to store guitar tab created through the tool. It currently does not support in-line text editing. Any text you place in here will be lost. If you need to comment on your tab, please use the "Tab Notes" section located below.