Sound will begin in 5 seconds

Compss

Chords
01234567891011121314151617181920212223
E
B
G
D
A
E
B
0 1 2 3 4 5 6 7 8 9 10 11 12 13 14 15 16 17 18 19 20 21 22 23
Song Science #1: How Pros Use 6 Chords to Write Hit Songs
(/) Slide Up  (\) Slide Down  (h) Hammer On  (p) Pull Off  (b) Bend (r) Release (v) Vibrato

Stave 1:

E|--------------------------------------------------------------------------------------------------------------------------
B|--13h15p13------------------------------------------------------13h15p13--------------------------------------------------
G|--12--------12h14p12------12h14p12------12h14p12h14--12--12-----12--------12h14p12------12h14p12------12--14--------------
D|----------------------15------------15----------------------------------------------15------------15----------15----------
A|------------------------------------------------------------------------------------------------------------------15--15--
E|--------------------------------------------------------------------------------------------------------------------------

Stave 2:

E|--------------------|--------------------------------------------------
B|--------------------|-----13p11----------------------------------------
G|--11-----10---------|----------------9--12--11p9------12p11p9----------
D|--10-----10-----10--|------------10---------------10-----------10--10--
A|--9------8------10--|--------------------------------------------------
E|----------------8---|--------------------------------------------------

Stave 3:

E|------------------------------------10------------------------------
B|-------------11-----------------11------11----------11--------------
G|------8--12------12--8--10--12--------------10--12------10--12--10--
D|--10----------------------------------------------------------------
A|--------------------------------------------------------------------
E|--------------------------------------------------------------------

http://www.guitartabcreator.com
Guitar Tab Creator is intended to store guitar tab created through the tool. It currently does not support in-line text editing. Any text you place in here will be lost. If you need to comment on your tab, please use the "Tab Notes" section located below.