....

(/) Slide Up  (\) Slide Down  (h) Hammer On  (p) Pull Off  (b) Bend (r) Release (v) Vibrato

Stave 1:

E|-16----------19----------|----19-17-19-18-17-16----|----------------------|----------
B|----17----17-------15-15-|----------------------20-|-15----15-------------|----------
G|-------16----------------|-16----------------------|----15----15----------|----------
D|-------------------------|-------------------------|-------------------15-|-16-15-14-
A|-------------------------|-------------------------|-------------16-17----|----------
E|-------------------------|-------------------------|----------------------|----------

Stave 2:

E|------------------|-----------------|---------------------
B|------------------|-----------------|---------------------
G|------------------|-----------------|---------------------
D|-4-------7--------|---7-5-7-6-5-4-3-|-------------1-2-1-0-
A|---5---5------3-3-|-----------------|-3---3---2-3---------
E|-----5------------|-5---------------|---4---4-------------

Stave 3:

E|-----------------------|------------------------|---------------------
B|-----------------------|------------------------|---------------------
G|-------------12--------|----12-10-12-11-10-9----|-------------6-7-6-5-
D|----10----10-------6-6-|---------------------13-|-8---8---7-8---------
A|-------10--------------|-10---------------------|---9---9-------------
E|-----------------------|------------------------|---------------------

http://www.guitartabcreator.com
Guitar Tab Creator is intended to store guitar tab created through the tool. It currently does not support in-line text editing. Any text you place in here will be lost. If you need to comment on your tab, please use the "Tab Notes" section located below.