Milk White Air by J. Tillman

Chords

01234567891011121314151617181920212223
E
B
G
D
A
E
B
0 1 2 3 4 5 6 7 8 9 10 11 12 13 14 15 16 17 18 19 20 21 22 23
(/) Slide Up  (\) Slide Down  (h) Hammer On  (p) Pull Off  (b) Bend (r) Release (v) Vibrato

Capo Fret 6

Intro / Chorus

E |------------------------------------------------------------------------------------------------------------
B |--2h4-----------------------2h4-------------------------0h2-----------------------0h2-----------------------
Gb|------------------------------------------0h2-----0-------------------0-------------------------0-----------
Db|-------0-----0-----0-----0-------0-----0-------0-----0-------0-----0--------3----------0-----0--------3-----
B |----------0-----------0-------------0---------------------------0-------------------------0-----------------
E |--2-------------2-----------2-------------2-------------0-------------0-----------0-------------0-----------

Verse 1:

E |--------------------------------------------------------------------------------------------------
B |--4-----------------------4-----------------------4-----------------------4-----------------------
Gb|--------------------------------------------------------------------------------------------------
Db|-----0-----0-----0-----0-----0-----0-----0-----0-----0-----0-----0-----0-----0-----0-----0-----0--
B |--------0-----------0-----------0-----------0-----------0-----------0-----------0-----------0-----
E |--2-----------2-----------2-----------2-----------0-----------0-----------0-----------0-----------

Bridge

E |---------------------------------------------------------------------------------------------------
B |---------------------------------------------------------------------------------------------------
Gb|--4-----------------------4-----------10-----------9-----------------------9-----------------------
Db|-----0-----0-----0-----0-----0-----0------0-----0-----0-----0-----0-----0-----0-----0-----0-----0--
B |--------0-----------0-----------0------------0-----------0-----------0-----------0-----------0-----
E |--2-----------2-----------2-----------9------------7-----------7-----------7-----------7-----------

Verse 2 / Outro

E |--------------------------------------------------------------------------------------------------
B |--4-----------------------4-----------------------4-----------------------4-----------------------
Gb|--------------------------------------------------------------------------------------------------
Db|-----0-----0-----0-----0-----0-----0-----0-----0-----0-----0-----0-----0-----0-----0-----0-----0--
B |--------0-----------0-----------0-----------0-----------0-----------0-----------0-----------0-----
E |--0-----------0-----------0-----------0-----------2-----------2-----------2-----------2-----------

Chorus Last Time:

E |------------------------------------------------------------------------------------------
B |--0h2-----------------------2h4-----------------------5-----------------------5-----------
Gb|----------------0-------------------------------------------------------------------------
Db|-------0-----0--------3----------0-----0-----0-----0-----0-----0-----0-----0-----0-----0--
B |----------0-------------------------0-----------0-----------0-----------0-----------0-----
E |--0-------------0-----------2-------------2-----------4-----------4-----------4-----------

							http://www.guitartabcreator.com
Instruments
{"strings":[[[".",".",".",".",".",".",".",".",".",".",".",".",".",".",".",".",".",".",".",".",".",".",".",".",".",".",".",".",".","_",".","_",".",".",".",".",".",".",".","_",".","_"],[2,"h",4,".",".",".",".",".",".",".",2,"h",4,".",".",".",".",".",".",".",".",".",0,"h",2,".",".",".",".","_",".","_",0,"h",2,".",".",".",".","_",".","_"],[".",".",".",".",".",".",".",".",".",".",".",".",".",".",".",".",0,"h",2,".",0,".",".",".",".",".",".",".",0,"_",".","_",".",".",".",".",".",".",0,"_",".","_"],[".",".",".",0,".",0,".",0,".",0,".",".",".",0,".",0,".",".",".",0,".",0,".",".",".",0,".",0,".","_",3,"_",".",".",".",0,".",0,".","_",3,"_"],[".",".",".",".",0,".",".",".",0,".",".",".",".",".",0,".",".",".",".",".",".",".",".",".",".",".",0,".",".","_",".","_",".",".",".",".",0,".",".","_",".","_"],[2,".",".",".",".",".",2,".",".",".",2,".",".",".",".",".",2,".",".",".",".",".",0,".",".",".",".",".",0,"_",".","_",0,".",".",".",".",".",0,"_",".","_"]],[[".",".",".",".",".",".",".",".",".",".",".",".",".",".",".",".",".",".",".",".",".",".",".",".",".",".",".",".",".",".",".","."],[4,".",".",".",".",".",".",".",4,".",".",".",".",".",".",".",4,".",".",".",".",".",".",".",4,".",".",".",".",".",".","."],[".",".",".",".",".",".",".",".",".",".",".",".",".",".",".",".",".",".",".",".",".",".",".",".",".",".",".",".",".",".",".","."],[".",0,".",0,".",0,".",0,".",0,".",0,".",0,".",0,".",0,".",0,".",0,".",0,".",0,".",0,".",0,".",0],[".",".",0,".",".",".",0,".",".",".",0,".",".",".",0,".",".",".",0,".",".",".",0,".",".",".",0,".",".",".",0,"."],[2,".",".",".",2,".",".",".",2,".",".",".",2,".",".",".",0,".",".",".",0,".",".",".",0,".",".",".",0,".",".","."]],[[".",".",".",".",".",".",".",".",".",".",".",".",".",".",".",".",".",".",".",".",".",".",".",".",".",".",".",".",".",".",".","."],[".",".",".",".",".",".",".",".",".",".",".",".",".",".",".",".",".",".",".",".",".",".",".",".",".",".",".",".",".",".",".","."],[4,".",".",".",".",".",".",".",4,".",".",".",10,".",".",".",9,".",".",".",".",".",".",".",9,".",".",".",".",".",".","."],[".",0,".",0,".",0,".",0,".",0,".",0,".",0,".",0,".",0,".",0,".",0,".",0,".",0,".",0,".",0,".",0],[".",".",0,".",".",".",0,".",".",".",0,".",".",".",0,".",".",".",0,".",".",".",0,".",".",".",0,".",".",".",0,"."],[2,".",".",".",2,".",".",".",2,".",".",".",9,".",".",".",7,".",".",".",7,".",".",".",7,".",".",".",7,".",".","."]],[[".",".",".",".",".",".",".",".",".",".",".",".",".",".",".",".",".",".",".",".",".",".",".",".",".",".",".",".",".",".",".","."],[4,".",".",".",".",".",".",".",4,".",".",".",".",".",".",".",4,".",".",".",".",".",".",".",4,".",".",".",".",".",".","."],[".",".",".",".",".",".",".",".",".",".",".",".",".",".",".",".",".",".",".",".",".",".",".",".",".",".",".",".",".",".",".","."],[".",0,".",0,".",0,".",0,".",0,".",0,".",0,".",0,".",0,".",0,".",0,".",0,".",0,".",0,".",0,".",0],[".",".",0,".",".",".",0,".",".",".",0,".",".",".",0,".",".",".",0,".",".",".",0,".",".",".",0,".",".",".",0,"."],[0,".",".",".",0,".",".",".",0,".",".",".",0,".",".",".",2,".",".",".",2,".",".",".",2,".",".",".",2,".",".","."]],[[".",".",".",".",".",".",".","_",".","_",".",".",".",".",".",".",".",".",".",".",".",".",".",".",".",".",".",".",".",".",".","."],[0,"h",2,".",".",".",".","_",".","_",2,"h",4,".",".",".",".",".",".",".",5,".",".",".",".",".",".",".",5,".",".","."],[".",".",".",".",".",".",0,"_",".","_",".",".",".",".",".",".",".",".",".",".",".",".",".",".",".",".",".",".",".",".",".","."],[".",".",".",0,".",0,".","_",3,"_",".",".",".",0,".",0,".",0,".",0,".",0,".",0,".",0,".",0,".",0,".",0],[".",".",".",".",0,".",".","_",".","_",".",".",".",".",0,".",".",".",0,".",".",".",0,".",".",".",0,".",".",".",0,"."],[0,".",".",".",".",".",0,"_",".","_",2,".",".",".",".",".",2,".",".",".",4,".",".",".",4,".",".",".",4,".",".","."]]],"numberofstrings":6,"notes":["E","B","FsGb","CsDb","B","E","B"],"capo":"6","stringnotes":["E4","B3","Gb3","Db3","B2","E2"],"comments":["Intro / Chorus","Verse 1:","Bridge","Verse 2 / Outro","Chorus Last Time:"],"timing":[["W","W","W","W","W","W","W","W","W","W","W",null,"W","W","W","W","W",null,"W","W","W","W","W",null,"W","W","W","W","W","W","W",null,"W",null,"W","W","W","W","W","W","W"],["W","W","W","W","W","W","W","W","W","W","W","W","W","W","W","W","W","W","W","W","W","W","W","W","W","W","W","W","W","W","W","W","W","W","W","W","W","W","W","W","W","W","W"],["W","W","W","W","W","W","W","W","W","W","W","W","W","W","W","W","W","W","W","W","W","W","W","W","W","W","W","W","W","W","W","W"],["W","W","W","W","W","W","W","W","W","W","W","W","W","W","W","W","W","W","W","W","W","W","W","W","W","W","W","W","W","W","W","W"],["W",null,"W","W","W","W","W",null,"W",null,"W",null,"W","W","W","W","W","W","W","W","W","W","W","W","W","W","W","W","W","W","W","W"]],"timingvisible":false,"tabcounter":22,"stave":4,"totalstaves":5,"instrument":"6guitar","selectedtuning":"6_standard","version":"13"}

Member for

1 month 2 weeks
Submitted by ablandlaleyway on Wed, 2020-12-02 16:07