Bass Blues Lines

Chords

01234567891011121314151617181920212223
E
B
G
D
A
E
B
0 1 2 3 4 5 6 7 8 9 10 11 12 13 14 15 16 17 18 19 20 21 22 23
(/) Slide Up  (\) Slide Down  (h) Hammer On  (p) Pull Off  (b) Bend (r) Release (v) Vibrato

Stave 1:

G|--------------|--------------|--------------|--
D|--------------|-----4--7--4--|-----6--9--6--|--
A|-----4--7--4--|--5-----------|--7-----------|--
E|--5-----------|--------------|--------------|--

Stave 2:

G|--------------|-----------5--|-----------7--|--
D|-----------5--|-----4--7-----|-----6--9-----|--
A|-----4--7-----|--5-----------|--7-----------|--
E|--5-----------|--------------|--------------|--

Stave 3:

G|--------------|--------------|--
D|-----------4--|--5--4--------|--
A|-----4--7-----|--------7--4--|--
E|--5-----------|--------------|--

							http://www.guitartabcreator.com
Instruments
{"strings":[[[".",".",".",".","|",".",".",".",".","|",".",".",".",".","|"],[".",".",".",".","|",".",4,7,4,"|",".",6,9,6,"|"],[".",4,7,4,"|",5,".",".",".","|",7,".",".",".","|"],[5,".",".",".","|",".",".",".",".","|",".",".",".",".","|"]],[[".",".",".",".","|",".",".",".",5,"|",".",".",".",7,"|"],[".",".",".",5,"|",".",4,7,".","|",".",6,9,".","|"],[".",4,7,".","|",5,".",".",".","|",7,".",".",".","|"],[5,".",".",".","|",".",".",".",".","|",".",".",".",".","|"]],[[".",".",".",".","|",".",".",".",".","|"],[".",".",".",4,"|",5,4,".",".","|"],[".",4,7,".","|",".",".",7,4,"|"],[5,".",".",".","|",".",".",".",".","|"]]],"numberofstrings":4,"notes":["G","D","A","E"],"capo":0,"stringnotes":["G2","D2","A1","E1"],"comments":["Stave 1:","Stave 2:","Stave 3:"],"timing":[["W","W","W","W",null,"W","W","W","W",null,"W","W","W","W"],["W","W","W","W","W","W","W","W","W",null,"W","W","W","W"],["W","W","W","W","W","W","W","W","W",null,"W","W"]],"timingvisible":false,"tabcounter":10,"stave":2,"totalstaves":3,"instrument":"4bass","selectedtuning":"4bass","version":"13"}

Member for

2 months 1 week
Submitted by abinder on Sun, 2020-09-13 20:46