Sound will begin in 5 seconds

Owl City - Fireflies (2-handed Tapping)

01234567891011121314151617181920212223
E
B
G
D
A
E
B
0 1 2 3 4 5 6 7 8 9 10 11 12 13 14 15 16 17 18 19 20 21 22 23
Song Science #1: How Pros Use 6 Chords to Write Hit Songs
(/) Slide Up  (\) Slide Down  (h) Hammer On  (p) Pull Off  (b) Bend (r) Release (v) Vibrato

Stave 1:

E|---------22---------18--------------------11------18---------
B|-----11---------11---------16-----11--18------18---------16--
G|-------------------------------8----------------------8------
D|--8----------8----------8------------------------------------
A|-------------------------------------------------------------
E|-------------------------------------------------------------

Stave 2:

E|------------6--------------------------6----------11--13--
B|--------13-----13--16-----------9--13---------13----------
G|-----8-----------------8----------------------------------
D|--6-----------------------6---------------10--------------
A|----------------------------------------------------------
E|----------------------------------------------------------

Stave 3:

E|---------22----------18--------------------11--16--15--11------
B|-----11---------------------16-----11--18----------------------
G|-------------19--10-------------8--------------------------15--
D|--8------------------------------------------------------------
A|---------------------------------------------------------------
E|---------------------------------------------------------------

Stave 4:

E|--------------------------------------------11--13--
B|--------13--------11-----13-----13--11--------------
G|-----8------8---------8-----------------------------
D|--6------------6-------------6----------10----------
A|----------------------------------------------------
E|----------------------------------------------------

http://www.guitartabcreator.com
Guitar Tab Creator is intended to store guitar tab created through the tool. It currently does not support in-line text editing. Any text you place in here will be lost. If you need to comment on your tab, please use the "Tab Notes" section located below.