Sound will begin in 5 seconds

Metronomy - Love Letters Bass tab

01234567891011121314151617181920212223
E
B
G
D
A
E
B
0 1 2 3 4 5 6 7 8 9 10 11 12 13 14 15 16 17 18 19 20 21 22 23
Song Science #1: How Pros Use 6 Chords to Write Hit Songs
(/) Slide Up  (\) Slide Down  (h) Hammer On  (p) Pull Off  (b) Bend (r) Release (v) Vibrato

(W|WW) Whole (H|HH) Half (Q|QQ) Quarter (E|EE) 8th (S|SS) 16th (T|TT) 32nd (X|XX) 64th

Stave 1:
t: W W H H H H W W H H H H W W H H W W W H H H H
G|--------------------|--------------------|-----------------|--------------------|--
D|-----------8--------|-----------6--------|-----------4--4--|-----------4--4--3--|--
A|--------------6--6--|--------------------|-----------------|--------------------|--
E|--6--6--6-----------|--4--4--4-----4--3--|--2--2--2--------|--2--2--2-----------|--

Stave 2:
t: W W W H H W W W W W W H H W H H H H H HH WW
G|-----------------|--------------|-----------------|-------------------------|--
D|-----------------|--------------|-----------6--8--|-----8-----------10--11--|--
A|--6--6--6--6--7--|--8--8--3--3--|--4--4--4--------|--6-----6--7--8----------|--
E|-----------------|--------------|-----------------|-------------------------|--

Stave 3:
t: H H H H W W W W H H H H W W H H W W W H H H H
G|-------------------|--------------------|-----------------|--------------------|--
D|-----8-------------|-----------6--------|-----------4--4--|-----------4--4--3--|--
A|--------8----------|--------------6-----|-----------------|--------------------|--
E|--6--------6--1/6--|--4--4--4--------4--|--2--2--2--------|--2--2--2-----------|--

Stave 4:
t: W W W H H W W W W W W W W W H H W HH HH H H H H H H H
G|-----------------|--------------|--------------|----------------------|-----------------------|--
D|-----------------|--------------|--------------|--------------10--10--|-----8--------8--------|--
A|--6--6--6--6--7--|--8--8--3--3--|--4--4--------|--6--6--7--8----------|--------8--------8-----|--
E|-----------------|--------------|--------4--4--|----------------------|--6--------6--------1--|--

Stave 5:
t: H H Q Q Q Q H H Q Q H H Q Q H H H H H H
G|------------------|------------------------|--------------------|--
D|-------------4h6--|------------------------|-----------4--4--3--|--
A|--------4h6-------|--------2h4--------2h4--|--------------------|--
E|--4--4------------|--2--2-------2--2-------|--2--2--2-----------|--

Stave 6:
t: W W W H H W W H H H H W W W H HH HH HH HH HH HH HH HH HH
G|-----------------|--------------------|------------------|----------------------------------|--
D|-----------------|--------------------|------------------|----------------------------------|--
A|--6--6--6--6--7--|--8--8--8-----6--8--|--9--9--9--9--10--|--11------11------11------11--13--|--
E|-----------------|-----------9--------|------------------|------11------11------11----------|--

http://www.guitartabcreator.com
Guitar Tab Creator is intended to store guitar tab created through the tool. It currently does not support in-line text editing. Any text you place in here will be lost. If you need to comment on your tab, please use the "Tab Notes" section located below.