Me importa un carajo

01234567891011121314151617181920212223
E
B
G
D
A
E
B
0 1 2 3 4 5 6 7 8 9 10 11 12 13 14 15 16 17 18 19 20 21 22 23
(/) Slide Up  (\) Slide Down  (h) Hammer On  (p) Pull Off  (b) Bend (r) Release (v) Vibrato

Stave 1:

E|--------------------------------------------------------
B|--------------------------------------------------------
G|--4--5--7b7--5--4-------------------------------4--5--7b
D|-------------------7--5-------5--7----------------------
A|-------------------------7b7----------------------------
E|--------------------------------------------------------

Stave 2:

E|---------------------------------------
B|---------------------------------------
G|--4--5--7b---------------7b7b7b7--5\4--
D|---------------------------------------
A|---------------------------------------
E|---------------------------------------

Stave 3:

E|----------5--7b7--5-------
B|--5b5--8-------------8--5b
G|--------------------------
D|--------------------------
A|--------------------------
E|--------------------------

Stave 4:

E|---------------------------------------------------
B|---------------------------------------------5--8--
G|--4--5--7b9--7--5--4h5--4--5--4--5--4--5--7--------
D|---------------------------------------------------
A|---------------------------------------------------
E|---------------------------------------------------

Stave 5:

E|----------------------------------------------------------------------------------------
B|--8b10--8--5-----------------------------5--8b10--8--5----------------------------------
G|--------------7--4/5--7--4/5--7--4/5--7-----------------7--4/5--------4--5--7b9--7--5v--
D|----------------------------------------------------------------5--7--------------------
A|----------------------------------------------------------------------------------------
E|----------------------------------------------------------------------------------------

Stave 6:

E|--
B|--
G|--
D|--
A|--
E|--

							http://www.guitartabcreator.com
Chords

Instruments
{"strings":[[[".",".",".",".",".",".",".",".",".",".",".",".",".",".","_","_","_","_",".",".",".","."],[".",".",".",".",".",".",".",".",".",".",".",".",".",".","_","_","_","_",".",".",".","."],[4,5,7,"b",7,5,4,".",".",".",".",".",".",".","_","_","_","_",4,5,7,"b"],[".",".",".",".",".",".",".",7,5,".",".",".",5,7,"_","_","_","_",".",".",".","."],[".",".",".",".",".",".",".",".",".",7,"b",7,".",".","_","_","_","_",".",".",".","."],[".",".",".",".",".",".",".",".",".",".",".",".",".",".","_","_","_","_",".",".",".","."]],[[".",".",".",".","_","_","_","_","_",".",".",".",".",".",".",".",".",".","."],[".",".",".",".","_","_","_","_","_",".",".",".",".",".",".",".",".",".","."],[4,5,7,"b","_","_","_","_","_",7,"b",7,"b",7,"b",7,5,"\\",4],[".",".",".",".","_","_","_","_","_",".",".",".",".",".",".",".",".",".","."],[".",".",".",".","_","_","_","_","_",".",".",".",".",".",".",".",".",".","."],[".",".",".",".","_","_","_","_","_",".",".",".",".",".",".",".",".",".","."]],[[".",".",".",".",5,7,"b",7,5,".",".","."],[5,"b",5,8,".",".",".",".",".",8,5,"b"],[".",".",".",".",".",".",".",".",".",".",".","."],[".",".",".",".",".",".",".",".",".",".",".","."],[".",".",".",".",".",".",".",".",".",".",".","."],[".",".",".",".",".",".",".",".",".",".",".","."]],[[".",".",".",".",".",".",".",".",".",".",".",".",".",".",".",".",".",".","."],[".",".",".",".",".",".",".",".",".",".",".",".",".",".",".",".",".",5,8],[4,5,7,"b",9,7,5,4,"h",5,4,5,4,5,4,5,7,".","."],[".",".",".",".",".",".",".",".",".",".",".",".",".",".",".",".",".",".","."],[".",".",".",".",".",".",".",".",".",".",".",".",".",".",".",".",".",".","."],[".",".",".",".",".",".",".",".",".",".",".",".",".",".",".",".",".",".","."]],[[".",".",".",".",".",".",".",".",".",".",".",".",".",".",".",".",".",".",".",".",".",".",".",".",".",".",".",".",".",".",".",".",".",".",".",".",".","."],[8,"b",10,8,5,".",".",".",".",".",".",".",".",".",".",".",".",".",5,8,"b",10,8,5,".",".",".",".",".",".",".",".",".",".",".",".",".","."],[".",".",".",".",".",7,4,"/",5,7,4,"/",5,7,4,"/",5,7,".",".",".",".",".",".",7,4,"/",5,".",".",4,5,7,"b",9,7,5,"v"],[".",".",".",".",".",".",".",".",".",".",".",".",".",".",".",".",".",".",".",".",".",".",".",".",".",".",".",".",5,7,".",".",".",".",".",".",".","."],[".",".",".",".",".",".",".",".",".",".",".",".",".",".",".",".",".",".",".",".",".",".",".",".",".",".",".",".",".",".",".",".",".",".",".",".",".","."],[".",".",".",".",".",".",".",".",".",".",".",".",".",".",".",".",".",".",".",".",".",".",".",".",".",".",".",".",".",".",".",".",".",".",".",".",".","."]],[[],[],[],[],[],[]]],"numberofstrings":6,"notes":["E","B","G","D","A","E","B"],"capo":0,"stringnotes":["E4","B3","G3","D3","A2","E2"],"comments":["Stave 1:","Stave 2:","Stave 3:","Stave 4:","Stave 5:","Stave 6:"],"timing":[["W","W","W",null,"W","W","W","W","W","W",null,"W","W","W","W","W","W","W","W","W","W"],["W","W","W",null,"W","W","W","W","W","W",null,"W",null,"W",null,"W","W",null,"W"],["W",null,"W","W","W","W",null,"W","W","W","W",null],["W","W","W",null,"W","W","W","W",null,"W","W","W","W","W","W","W","W","W","W"],["W",null,"W","W","W","W","W",null,"W","W","W",null,"W","W","W",null,"W","W","W","W",null,"W","W","W","W","W",null,"W","W","W","W","W","W",null,"W","W","W"],[]],"timingvisible":false,"tabcounter":0,"stave":5,"totalstaves":6,"instrument":"6guitar","selectedtuning":"6_standard","version":"13"}

Member for

1 month 1 week
Submitted by aaronrrc on Wed, 2022-05-18 07:28