Sound will begin in 5 seconds

Let It Go

Chords
01234567891011121314151617181920212223
E
B
G
D
A
E
B
0 1 2 3 4 5 6 7 8 9 10 11 12 13 14 15 16 17 18 19 20 21 22 23
Song Science #1: How Pros Use 6 Chords to Write Hit Songs
(/) Slide Up  (\) Slide Down  (h) Hammer On  (p) Pull Off  (b) Bend (r) Release (v) Vibrato

Capo Fret 1

Stave 1:

E|--0--0-----0--5--5-----5--5--5--0--0-----0--3--3-----3--1--0--
B|--------------------------------------------------------------
G|--------------------------------------------------------------
D|--------------3-----3-----3--3--------------------------------
A|--3-----3-----------------------0-----0-----------------------
E|--------------------------------------------3-----3-----------

Stave 2:

E|--0--0-----0--5--5-----5--5--5--0--0-----0--------------------
B|--------------------------------------------3--3-----3--3--3--
G|--------------------------------------------------------------
D|--------------3-----3-----3--3--------------------------------
A|--3-----3-----------------------0-----0-----------------------
E|--------------------------------------------3-----3-----3--3--

Stave 3:

E|-------8--8-------7--8--8--------5-----8--
B|--5h6--------6p5--------------5-----------
G|------------------------------------------
D|------------------------------------------
A|------------------------------------------
E|------------------------------------------

Stave 4:

E|-------8-----8-----0--5-----7--8--8-----5--------8--
B|--5h6-----0-----0--------------------------5--------
G|----------------------------------------------------
D|----------------------------------------------------
A|----------------------------------------------------
E|----------------------------------------------------

Stave 5:

E|-------------------------------------------------------------------------------
B|-------5--------5--------5-----5-----5--5-----5-----5--------5-----5-----5--5--
G|-------------------------------------------------------------------------------
D|--4/7--------7-----7-----5--5-----5--5--5-----4--4-----4-----3--3-----3--3--3--
A|-------------------------------------------------------------------------------
E|-------------------------------------------------------------------------------

Stave 6:

E|--
B|--
G|--
D|--
A|--
E|--

http://www.guitartabcreator.com
Guitar Tab Creator is intended to store guitar tab created through the tool. It currently does not support in-line text editing. Any text you place in here will be lost. If you need to comment on your tab, please use the "Tab Notes" section located below.