Sound will begin in 5 seconds

Going To Bed Now

Chords
01234567891011121314151617181920212223
E
B
G
D
A
E
B
0 1 2 3 4 5 6 7 8 9 10 11 12 13 14 15 16 17 18 19 20 21 22 23
Song Science #1: How Pros Use 6 Chords to Write Hit Songs
(/) Slide Up  (\) Slide Down  (h) Hammer On  (p) Pull Off  (b) Bend (r) Release (v) Vibrato

Stave 1:

E|--3--
B|--3--
G|--0--
D|--0--
A|--2--
E|--3--

Stave 2:

E|--3--
B|--3--
G|--0--
D|--0--
A|--2--
E|--3--

Stave 3:

E|----------------------------------------
B|----------------------------------------
G|--------9------9---------5--7-----5-----
D|--5--9--9--10--9--10--5--5--7--5--5--5--
A|--5--9--7--10--7--10--5--3--5--5--3--5--
E|--3--7-----8------8---3--------3-----3--

Stave 4:

E|----------------------------------------------------
B|----------------------------------------------------
G|--------9------9---------7-----5--5--5--x--x--x--x--
D|--5--9--9--10--9--10--5--7--5--5--5--5--x--x--x--x--
A|--5--9--7--10--7--10--5--5--5--3--x--2--x--x--x--x--
E|--3--7-----8------8---3-----3-----5-----------------

Stave 5:

E|--3--5--7--
B|--3--3--5--
G|--0--0--0--
D|--0--x--x--
A|--3--5--7--
E|-----------

Stave 6:

E|--------------------
B|--------------------
G|--------------5-----
D|--5--3--2--x--5--3--
A|--5--3--2--x--x--3--
E|--3--1--0--x--5--1--

Stave 7:

E|--3--3--2--3--3--3--
B|--3--3--3--3--3--3--
G|--0--0--2--0--0--0--
D|--0--2--0--2--0--0--
A|--2--3-----3--2--2--
E|--3-----------3--3--

Stave 8:

E|---------------------------
B|---------------------------
G|--------9---------------5--
D|--5--9--9--10--5--7--2--5--
A|--5--9--7--10--5--7--2--3--
E|--3--7-----8---3--5--0-----

Stave 9:

E|--8--8--3--
B|--8--8--3--
G|--0--0--0--
D|--x--x--x--
A|--7--6--3--
E|-----------

http://www.guitartabcreator.com
Guitar Tab Creator is intended to store guitar tab created through the tool. It currently does not support in-line text editing. Any text you place in here will be lost. If you need to comment on your tab, please use the "Tab Notes" section located below.