spitehouse end

Chords

01234567891011121314151617181920212223
E
B
G
D
A
E
B
0 1 2 3 4 5 6 7 8 9 10 11 12 13 14 15 16 17 18 19 20 21 22 23
(/) Slide Up  (\) Slide Down  (h) Hammer On  (p) Pull Off  (b) Bend (r) Release (v) Vibrato

Stave 1:

E|-----------------|-----------------|-----------------|-----------------|--------------------------------|-----------------
B|-----------------|-----------------|-----------------|-----------------|--------------------------------|-----------------
G|-----------------|-----------------|-----------------|-----------------|--------------------------------|--------------0--
D|--7--------------|-----4--7--------|--4-----4--------|--------7--9--7--|-----------5--------------7-----|--2--0-----2-----
A|-----7--5--4-----|--7--------4-----|-----4-----4-----|--7--9-----------|--7--5--7-----5--7--5--7-----3--|--------3--------
E|--------------5--|--------------5--|--------------5--|-----------------|--------------------------------|-----------------

Stave 2:

E|-----------------
B|-----------------
G|-----------------
D|--2--0-----------
A|--------3-----0--
E|-----------3-----

							http://www.guitartabcreator.com
Instruments
{"strings":[[[".",".",".",".",".","|",".",".",".",".",".","|",".",".",".",".",".","|",".",".",".",".",".","|",".",".",".",".",".",".",".",".",".",".","|",".",".",".",".","."],[".",".",".",".",".","|",".",".",".",".",".","|",".",".",".",".",".","|",".",".",".",".",".","|",".",".",".",".",".",".",".",".",".",".","|",".",".",".",".","."],[".",".",".",".",".","|",".",".",".",".",".","|",".",".",".",".",".","|",".",".",".",".",".","|",".",".",".",".",".",".",".",".",".",".","|",".",".",".",".",0],[7,".",".",".",".","|",".",4,7,".",".","|",4,".",4,".",".","|",".",".",7,9,7,"|",".",".",".",5,".",".",".",".",7,".","|",2,0,".",2,"."],[".",7,5,4,".","|",7,".",".",4,".","|",".",4,".",4,".","|",7,9,".",".",".","|",7,5,7,".",5,7,5,7,".",3,"|",".",".",3,".","."],[".",".",".",".",5,"|",".",".",".",".",5,"|",".",".",".",".",5,"|",".",".",".",".",".","|",".",".",".",".",".",".",".",".",".",".","|",".",".",".",".","."]],[[".",".",".",".","."],[".",".",".",".","."],[".",".",".",".","."],[2,0,".",".","."],[".",".",3,".",0],[".",".",".",3,"."]]],"numberofstrings":6,"notes":["E","B","G","D","A","E","B"],"capo":0,"stringnotes":["E4","B3","G3","D3","A2","E2"],"comments":["Stave 1:","Stave 2:"],"timing":[["W","W","W","W","W",null,"W","W","W","W","W",null,"W","W","W","W","W",null,"W","W","W","W","W",null,"W","W","W","W","W","W","W","W","W","W",null,"W","W","W","W","W"],["W","W","W","W","W"]],"timingvisible":false,"tabcounter":5,"stave":1,"totalstaves":2,"instrument":"6guitar","selectedtuning":"6_standard","version":"13"}

Member for

4 years 1 month
Submitted by AACMS Guitar on Mon, 2020-06-29 18:41