Sound will begin in 5 seconds

Goodbye Agony - Black Veil Brides (Intro)

01234567891011121314151617181920212223
E
B
G
D
A
E
B
0 1 2 3 4 5 6 7 8 9 10 11 12 13 14 15 16 17 18 19 20 21 22 23
Song Science #1: How Pros Use 6 Chords to Write Hit Songs
(/) Slide Up  (\) Slide Down  (h) Hammer On  (p) Pull Off  (b) Bend (r) Release (v) Vibrato

Stave 1:

Eb|--------------------------------------------------
Bb|--------2--3--------2-----------2--3--------------
Gb|-----4-----------4-----4-----4-----------3--4--6--
Db|--------------------------------------------------
Ab|--2-----------------------------------------------
Db|--------------5-----------2-----------4-----------

Stave 2:

Eb|--------------------------------------------------
Bb|--------2--3--------2-----------2--3--------------
Gb|-----4-----------4-----4-----4-----------3--4--6--
Db|--------------------------------------------------
Ab|--2-----------------------------------------------
Db|--------------5-----------6-----------4-----------

Stave 3:

Eb|----------------------------------------------------14------------------
Bb|--12------12--14--15------12--14--15--15b15--15b14------14--12------12--
Gb|------11--------------11----------------------------------------11------
Db|------------------------------------------------------------------------
Ab|------------------------------------------------------------------------
Db|------------------------------------------------------------------------

http://www.guitartabcreator.com
Guitar Tab Creator is intended to store guitar tab created through the tool. It currently does not support in-line text editing. Any text you place in here will be lost. If you need to comment on your tab, please use the "Tab Notes" section located below.